Acordes y tablaturas para guitarra

Acordes y Tablaturas
Usuario: Password:

Buscar:
Acordes y Tablaturas >> Letra M >> Acordes de Musica De TV >> Soy Un Cacahuate (con Solo)
Acordes de Soy Un Cacahuate (con Solo), Musica De TV

Soy Un Cacahuate (con Solo)

Musica De TV






a.c.d.e.g.
A   G x4 D x4 E G
Soy un cacahuate! [Rock]

            A         A   G x4 D x4 E C
Eres un cacahuate! [Rock]

               A         A   G x4 D x4 E G
Todos somos cacahuates [Rock]
      
              A         A   G x4 D x4 E C
Cacahuate cacahuate! [Rock]

A                    
Que me dices ven,

D                            G                       A  
Si no quieres que me ria nunca mas me reire y digo, "No!"

G    D       A    
No! Nunca reire!

A
Que me dices ven

D                                  G                     
Tu me dices que soy chico dime otravez,
            A 
Yo te digo YA!"  [ey!]
G x2  D x2  A  A D G
Otravez ya!

G x3               D x3    
Si lo que quieres es sentirte como yo


G x3                        A   G D
Asi lo haras chico seras y muy feliz

omopelesipelepapalaljamalapepelesipelebob


                     A   G x4 D x4 E G
Soy un cacahuate! [Rock]

            A         A   G x4 D x4 E C
Eres un cacahuate! [Rock]

               A         A   G x4 D x4 E G
Todos somos cacahuates [Rock]
      
              A         A   G x4 D x4 E C
Cacahuate cacahuate! [Rock]


                 
E|---------5----------------------------10^10^-12-10-8--10-8--10-8----8-10-12-10-12-10-12-|
B|-8^8^8^8^-8-5--5------------8-1-0-8-8---------------10----10----10----------------|
G|-------------7^-7-5-7-5~--7^-------9-----------------------------------------|
D|-------------------7-----------------------------------------------------|
A|-----------------------------------------------------------------------|
E|-----------------------------------------------------------------------|

E|-15^15^17-15-12-----15---------------------------------|
B|---------------15-17--15-13-15-15-13--13--17---17---17----|
G|------------------------------------14--14--20^--20^--20--|
D|----------------------------------------------------|
A|----------------------------------------------------|
E|----------------------------------------------------|

E|------------------------------|
B|17-20-17--17-20---17-20^-15^-15--|
G|--------19-----19^---------------|
D|------------------------------|
A|------------------------------|

Que te parecio? Calificalo con estrellas!!

Rating: 7.5/10 (54 votos)

Este fichero es trabajo propio de su transcriptor y representa su interpretación personal de la canción. El material contenido en esta página es para exclusivo uso privado, por lo que se prohibe su reproducción o retransmisión, así como su uso para fines comerciales.


Deja tus comentarios:
Letras de canciones | Musica Independiente