Enviado por:
abrahmize

Reik, Me Duele Amarte

estos son los riffs de la guitarra electrica que toca Bibi

Intro:

e|-----------------------------------|
B|-----------------------------------|
G|-----5-6-6/8--------6/8--8/10/8-6--|
D|-6/8----------3/5-8----------------|
A|-----------------------------------|
E|-----------------------------------|


esto es a mediacion de la cancion en el puente musical


e|--------------------------------------------------------------
B|--------------------------------------------------------------
G|-----5-6-6/8--------6/8--8/10-8-6---6-8/10-8-------8-8/10--6--
D|-6/8----------3/5-8---------------8----------3/5-8------------
A|--------------------------------------------------------------
E|--------------------------------------------------------------
Aviso: Este fichero es trabajo propio de su transcriptor y representa su interpretación personal de la canción. El material contenido en esta página es para exclusivo uso privado, por lo que se prohibe su reproducción o retransmisión, así como su uso para fines comerciales.

Califica esta canción


Comentarios en Facebook