Enviado por: lumixxx
Agrandar Letra
Reducir Letra
Imprimir

Acordes:
½ tono
| +0 |
½ tono
||
Volver










Aventura, Hoja En Blanco

Dm C 
e-----10-10-10--12-13-12-13-/-13-12-10---8-8-8-10--12-10-12-/
B-10------------------------/-------------------------------/
G-10--10-10-10--10-10-10-10-/-10-10-10---9-9-9--9--9--9--9--/
D---------------------------/-------------------------------/
A---------------------------/-------------------------------/
E---------------------------/-------------------------------/

Bb
------12-10----15------------------/ 
----13------13----15-15-13-15-13-11/
--12-------------------------------/
-----------------------------------/
-----------------------------------/
-----------------------------------/

C Dm 
e-----13-12-10-17-12-12-10-12-10-8-/----13---13------- 13-/
B---15-----------------------------/------15---15----15---/
G-14-------------------------------/-14------------14-----/
D----------------------------------/----------------------/
A----------------------------------/----------------------/
E----------------------------------/----------------------/ 


C	 Bb	 F
--12---12--------12-/--10---10--------10-/--8---8-------8-/ 
----13---13----13---/----11---11----11---/---10--10---10--/ 
-------------12-----/-------------10-----/----------10----/
--------------------/--------------------/----------------/
--------------------/--------------------/----------------/
--------------------/--------------------/----------------/
Aviso: Este fichero es trabajo propio de su transcriptor y representa su interpretación personal de la canción. El material contenido en esta página es para exclusivo uso privado, por lo que se prohibe su reproducción o retransmisión, así como su uso para fines comerciales.
comentario del colaborador: fuente original la cuerda

Califica esta canción


Comentarios en Facebook