Enviado por:
SebaSW

Camila, Entre Tus Alas

Imprimir
e-6---6--6---------6-4
B----7-7----7------7-5
G---6---6--6-----6-6-4
D-------------6h8-----
A---------------------
E---------------------

e---4--4---------4-2-
B--5-5----5------5-3-
G-4---4--4-----4-4-2-
D-----------4h6------
A--------------------
E--------------------

e---2--2h4-6-2---2-
B--3-3--------4h6--
G-2---2------------
D------------------
A------------------
E------------------

ESTO HAGANLO ARPEGIANDO LOS TONOS

     F#
Siempre fui
e---2---
B-2--2--
G--3--3-
D-------
A-------
E-2-----
 B                F#
Esclavo de la libertad
e---------2----------2---
B-------3--3-------2--2--
G--------3--3-------3--3-
D------------------------
A-------2----------------
E------------------2-----
               B       D
De esos que saben flotar
e--------------2----------2---
B------------3--3-------3--3--
G-------------3--3-------2--2-
D-----------------------0-----
A------------2----------------
E-----------------------------
   E              F#
Y que besan el cielo
e-------0------------2---2-X-
B-----0--0---------2--2--2-X-
G------1--1---------3--3-3-X-
D------------------------4-X-
A------------------------4-X-
E-----0------------2-----2-X-
           F#
Y hasta a que
e-----------2---
B---------2--2--
G----------3--3-
D---------------
A---------------
E---------2-----

  B            F#
Apareciste por ahí
e---------2----------2---
B-------3--3-------2--2--
G--------3--3-------3--3-
D------------------------
A-------2----------------
E------------------2-----
        B        D
Me decidí aterrizar
e-----------2----------2---
B--------3---3------3---3--
G----------3--3-------2--2-
D-------------------0------
A--------2-----------------
E--------------------------
     E             F#
Y quedarme en tu suelo
e-------0------------2---2-X-
B-----0--0---------2--2--2-X-
G------1--1---------3--3-3-X-
D------------------------4-X-
A------------------------4-X-
E-----0------------2-----2-X-

 A#m          G#          F#
Descubrí mi fe en tu ilusión
  A#m         G#        F#
Mi. alma reconoció Tu voz Y así
                  G#
Se fue detrás de ti mi corazón

[Coro]
C#
Vuelo entre tus alas
Fm
Despierto entre tu alma
 B           F#
Y mi paz ( y mi paz)
 B      F#      G#
Y  mi(Y mi) , razon
C#
Viajo en tu mirada
Fm
Me elevas
                    B
Soy mejor de lo que fui(lo que fui)
              G#
Por ti(por ti) Amor

     F#
Y hasta hoy
   B              F#
Pensaba que era libertad
                 D
Estaba en otro lugar
    E              F#
Y hoy la llevo por dentro

    F#           B            F#
Me asome al  laberinto de tu amor
                     D
Aquí encontré mi verdad
      E                F#
Y en ti esta lo que quiero

 A#m          G#          F#
Descubrí mi fe en tu ilusión
  A#m         G#        F#
Mi. alma reconoció Tu voz Y así
                  G#
Se fue detrás de ti mi corazón


[Coro]
C#
Vuelo entre tus alas
Fm
Despierto entre tu alma
 B           F#
Y mi paz ( y mi paz)
 B     F#      G#
y mi(y mi )razon
C#
Viajo en tu mirada
Fm
Me elevas
                    B
Soy mejor de lo que fui(lo que fui)
              G#
Por ti(por ti) Amor

C#
Viajo en tu mirada
Fm
Me elevas
                    B
Soy mejor de lo que fui(lo que fui)
              G#
Por ti(por ti) Amor

     F#
Siempre fui
e---2---
B-2--2--
G--3--3-
D-------
A-------
E-2-----
        B           F#
esclavo de la Libertad
e---------2----------2---
B-------3--3-------2--2--
G--------3--3-------3--3-
D------------------------
A-------2----------------
E------------------2-----
         B        D
Contigo puedo tocar
e-----------2--------2---
B---------3--3-----3--3--
G----------3--3-----2--2-
D------------------0-----
A---------2--------------
E------------------------
          E
lo que soñeeeeeee
e-----------0---
B---------0--0--
G----------1--1-
D---------------
A---------------
E---------0-----
        F#
Tanto tiempoooo
e---------2---------2-
B-------2--2-------2--
G--------3--3-----3---
D----------------4----
A---------------4-----
E-------2------2------
Aviso: Este fichero es trabajo propio de su transcriptor y representa su interpretación personal de la canción. El material contenido en esta página es para exclusivo uso privado, por lo que se prohibe su reproducción o retransmisión, así como su uso para fines comerciales.

Califica esta canción


Comentarios en Facebook