Acordes y tablaturas para guitarra

Acordes y Tablaturas
Usuario: Password:

Buscar:
Acordes y Tablaturas >> Letra A >> Acordes de Amen >> La Chata
Acordes de La Chata, Amen

La Chata

Amen






Intro:
        
e|-2--2-2-2-2h3p2-2-0-0-2-2-3~--|-----------------|-------14-12-------------14------
B|-3--3-3-3-3-3-3-3-3-3-3-3-3~--|-----------------|---12--------15-15/17------------
G|-2--2-2-2-2-2-2-2-2-2-2-2-0~--|--2h3p2----------|-14-------------------------15~--
D|-0--0-0-0-0-0-0-0-0-0-0-0-0~--|----------5-4----|---------------------------------
A|--------------------------3~--|-----------------|---------------------------------
E|--------------------------2~--|-----------------|---------------------------------


            (D)
Yo se que nunca podre
             (Sim)
dejar de quererte una vez
                (G)
y es que aunque no puedas hablarme
                  (A) 
se bien lo que quieres decirme

            (D)
No se si pueda resistir
               (Sim)
el tiempo lo sabra decir
                 (G)
y es que aunque no te tengo cerca
            (A) 
aun te puedo sentir

Coro:
             (D5)
Y solo yo quiero ohhh
                  (Si5)
que seas mia otra vez
         (G5)             
y aaaqui en mi corazon
               (A5)
nunca te olvidare noo

SOLO:

E----------------------------------------------------------
B-7/10-12--7~-----7/10-10/12-14b---------------------------
G----------------------------------------------------------
D----------------------------------------------------------
A----------------------------------------------------------
E----------------------------------------------------------

E---------------------------------------------------------
B--12-12h10----------------------17b-15-17----------------
G-----------11----11-11h9------------------14-------------
D-------------------------12------------------------------
A---------------------------------------------------------
E---------------------------------------------------------

E---------------------------------------------------------------------------------
B---------------------------------------------------?17b-17b-17b--17~-------------
G--------14---------------------------------------14------------------------------
D--14/16----14--9----12-14-12?14/16--16/14--14------------------------------------
A---------------------------------------------------------------------------------
E---------------------------------------------------------------------------------

              (D)
Quiza te olvides de Mi 
                (B5)
o quiza yo me olvide de tiii
             (G5)          
y es que contigo aprendi
              (A5)
nosé, si a vivir o morir

             (D)
Pero solo yo quiero ohhh
                  (Sim)
que seas mia otra vez
         (G)             (Gm)
y aaaqui en mi corazon
                (A) 
nunca te olvidare no [bis]

Final:   (D) (Gm) [x3]  Dmaj 7

  (Re)     (Sim)       (G)      (La)     Dmaj7    (Gm)   
e|-2-|  e|-2-|  e|-3-|  e|-0-|  e|-2-|  e|-3-|
B|-3-|  B|-3-|  B|-3-|  B|-2-|  B|-2-|  B|-3-| 
G|-2-|  G|-4-|  G|-0-|  G|-2-|  G|-2-|  G|-4-|
D|-0-|  D|-4-|  D|-0-|  D|-2-|  D|-0-|  D|-5-| 
A|-x-|  A|-2-|  A|-2-|  A|-0-|  A|-0-|  A|-5-| 
E|-x-|  E|-x-|  E|-3-|  E|-x-|  E|-x-|  E|-3-|

  (Re5)     (Si5)     (G5)      (La5)          
e|-x-|  e|-x-|  e|-x-|  e|-x-|   
B|-3-|  B|-x-|  B|-x-|  B|-x-|    
G|-2-|  G|-4-|  G|-x-|  G|-x-|   
D|-0-|  D|-4-|  D|-5-|  D|-7-|    
A|-x-|  A|-2-|  A|-5-|  A|-7-|   
E|-x-|  E|-x-|  E|-3-|  E|-5-|   


Si les gusto comenten que tal, si hallan algun problema o se traban en una parte avisenme a mi correo: [email protected]

Saludos!!


Que te parecio? Calificalo con estrellas!!

Rating: 7.7/10 (45 votos)

Este fichero es trabajo propio de su transcriptor y representa su interpretación personal de la canción. El material contenido en esta página es para exclusivo uso privado, por lo que se prohibe su reproducción o retransmisión, así como su uso para fines comerciales.


Comentario de peruvian
Hola! esta es mi primera TAB que subo a la pagina, espero sea de su agrado y ayudarlos con esta rola de un gran grupo AMEN. FUENTE:http://www.youtube.com/watch?v=OtToY_jkVig
Deja tus comentarios:
Letras de canciones | Musica Independiente