Enviado por:
wqtful

Soda Stereo, Texturas

Imprimir
Intro
G---------------------------------
D-----77---7---757----------------  X 5
A--00---00------------------------	  		
E---------------------------------




G--------------------------------------            
D--------------------------------------              X 3
A-----------555------------------------
E--333--666-----1-3-1-3----------------
										    

G--------------------------------------            
D--------------------------------------              
A-----------555555555------------------
E--333--666----------------------------

Son las seis tus relieves me despiertan...

G-----------------------------------------------------------            
D-----------------------------------------------------------              
A--22-235--------555555-------------------------------------
E---------333333--------22222-33333-2222-0000-2222----------


G-----------------------------------------------------------            
D-----------------------------------------------------------              
A-----------555555555--------5-7-7-7------------------------
E--333--666-----------0--5-7---------33333-55555------------


Necesito al mundo para darme cuenta...


G-----------------------------------------------------------            
D-----------------------------------------------------------              
A--22-235--------555555-------------------------------------
E---------333333--------22222-33333-2222-0000-2222----------



G----------5------------------------------------------------            
D-----------------------------------------------------------              
A--111--3----555555--7-5------5-----------------------------
E-------------------------5h7---7---3333333-----------------


Estribillo
 
Texturas... texturas

G---------------------------------
D-----77---77---757----------------  X 4 
A--00---00------------------------	  		
E---------------------------------



G--------------------------------------            
D--------------------------------------              X 3
A-----------555------------------------
E--333--666-----1-3-1-3----------------
										    

G--------------------------------------            
D--------------------------------------              
A-----------555555555------------------
E--333--666----------------------------

Conocer mi medida, tu medida...

G-----------------------------------------------------------            
D-----------------------------------------------------------              
A--22-235--------555555-------------------------------------
E---------333333--------22222-33333-2222-0000-2222----------

G-----------------------------------------------------------            
D-----------------------------------------------------------              
A-----------555555555--0------4h7-7-7--576------------------
E--333--666---------------5h7--------------6----------------

Necesito al mundo para darme vuelta...

G-----------------------------------------------------------            
D-----------------------------------------------------------              
A--22-235--------555555-------------------------------------
E---------333333--------22222-33333-2222-0000-2222----------

G----------5------------------------------------------------            
D-----------------------------------------------------------              
A--111--3----555555--7-5------7-----------------------------
E-------------------------5h7---5---3333333-----------------



G-----------------------------------------------------------
D-----------7-----------------------------------------------           X 4
A---5555----------------------------------------------------         
E--------5-----0-11111--------------------------------------


G--------------------------------------            
D--------------------------------------              X 3
A-----------555------------------------
E--333--666-----1-3-1-3----------------
										    

G--------------------------------------            
D--------------------------------------              
A-----------55555553h555---------------
E--333--666----------------------------

Dispare un frase al viento y una mujer cayo...

G----------9--5/7/9-9-9----------7-9--9-7---           
D-------------------------5h7--9---------9--            
A-------------------------------------------
E--0-0-0------------------------------------

G-----------------------------------------------------------           
D----------12-14-16/19--16/19-19----------------------------             
A-----------------------------------------------------------
E-3-3-3-----------------------------------------------------

G-----------------------------------------------------------            
D-----------------------------------------------------------              
A--22-235--------555555-------------------------------------
E---------333333--------22222-33333-2222-0000-2222----------

G-----------------------------------------------------------            
D-----------------------------------------------------------              
A--111--333----555555--7-5-----5----------------------------
E-------------------------5h7----7--3333333-----------------

G---------------------------------
D-----77---77---757---------------  X 7
A--00---00------------------------	  		
E---------------------------------

03:48
G---------------------------------
D-----77---77--7h10-7-5/7---------  X 4
A--00---00------------------------	  		
E---------------------------------

03:58
G---------------------------------
D-----77---77-7-5h7---------------  X 2
A--00---00------------------------	  		
E---------------------------------

04:04

G---------------------------------
D----7--7--7--7-------------------  Se repite hasta el final...
A--0--0--0--0----12/15/17---------	  		
E---------------------------------


traducida por wqtful
Cualquier duda: l[email protected]
Aviso: Este fichero es trabajo propio de su transcriptor y representa su interpretación personal de la canción. El material contenido en esta página es para exclusivo uso privado, por lo que se prohibe su reproducción o retransmisión, así como su uso para fines comerciales.

Califica esta canción


Comentarios en Facebook