Enviado por:
gelox

Mana, Cachito

Intro:(VERSION UNPLUGGED ES MEJOR) ( solamente guitarra principal)

e-3-1-1-0----0-0-----0-1-3-3---3-1-1-0--0----0-1-3--3---
B-1-1-1-1-0/1-1-----1------1-1-1-1-1-1--1--1-------1-1---
G-0-0-0-0----------2-------2---0-0-0-0--0-2-2----------- 
D-2-2-2-2-------0/3--------3---2-2-2-2--2---------------
A-3-3-3-3----------------------3-3-3-3--3---------------
E-0-0-0-0----------------------0-0-0-0--0---------------

C                             F
Tan solo un adicto, un adicto de tu sol   
e----------0------0-1-----0-1-3-1-0-
B--------1-------1-------1----------
G------0--0-----2-------2----------- (ojo aqui hace el acorde
D---0/2--------3-------3------------  C hasta que llega el punteo)
A-----------------------------------
E-----------------------------------
          C                     F           
y es que con solo un cachito, un pedasito de tu luz
e----------0------0-1-----0-1-0-----
B--------1-------1-------1------3---
G------0--0-----2-------2----------- (ojo aqui hace el acorde
D---0/2--------3-------3------------  C hasta que llega el punteo)
A-----------------------------------
E-----------------------------------
       C               Em          
yo llegaria al cielo o me caeria al suelo
e-----0-----------------------
B----1------------------------  LUEGO DEL PUNTEO 
G---0-------------------------  SIGUE EL EM(DEBES ESCUHAR 
D--2--------------------------  LA CANCION 
A-3---------------------------
E-----------------------------
             F    G
por ti mi amor......tan solo
e---------------------------------
B--------------1-----1----3-------
G-------------0-0--0--0---0-------
D------------3----3-3-----0-------
A-------------------------2-------
E-------------------------3-------       
       
       C              F    
Un cachito de tu corazon    
e----------------------------5---
B-----------------------1---8-8--
G----------------------0-0-7----- CUANDO LLEGA AL F
D---------------------3----------  HACE EL PUNTEO 
A--------------------------------
E--------------------------------                  
C                   F     
un cachito de tu corazon  
e---------------------------------
B---------------------1-1-5-3-----
G--------------------0--0---------
D-------------------3---3---------
A---------------------------------
E---------------------------------
C                      F    G
un cachito de tu corazon    
e----------------------------5---
B-----------------------1---8-8--
G----------------------0-0-7----- CUANDO LLEGA AL F
D---------------------3----------  HACE EL PUNTEO 
A--------------------------------
E--------------------------------                   
C                      F    G
soy un adicto de tu corazon

INTRO: (NUEVAMENTE)
e-3-1-1-0----0-0-----0-1-3-3---3-1-1-0--0--------------------
B-1-1-1-1-0/1-1-----1------1-1-1-1-1-1--1--------------------
G-0-0-0-0----------2-------2---0-0-0-0--0-------------------- 
D-2-2-2-2-------0/3--------3---2-2-2-2--2--2-3-2------------- 
A-3-3-3-3----------------------3-3-3-3--3-------5-3-2---2-5--
E-0-0-0-0----------------------0-0-0-0--0------------2-3-----

C                                    F
Pedirle a mi cabeza, que deje de pensar en ti
e----------0------0-1----------
B--------1-------1--1----------
G------0--0-----2---2---------- (ojo aqui hace el acorde
D---0/2--------3----3----------  C hasta que llega el punteo)
A------------------------------  DEBES ESCUCHAR LA CANCION
E------------------------------  SI NO TE CONFUNDES 
C                                   F
es casi como pedirle, a mi corazon que deje de latir 
e----------0------0-1-----0-1----
B--------1-------1-------1----1--
G------0--0-----2-------2-------- (ojo aqui hace el acorde
D---0/2--------3-------3---------  C hasta que llega el punteo)
A--------------------------------
E--------------------------------
      C             Em
mas bien olvida eso no, no repitas eso, 
e-----0--------------3-3--------
B----1--------------3-3---------  LUEGO DEL PUNTEO 
G---0-------------------------  SIGUE EL EM(DEBES ESCUHAR 
D--2--------------------------  LA CANCION 
A-3---------------------------
E-----------------------------
           F   G
te pido amor......tan solo.
e---------------------------------
B--------------1--1--1----3-------
G-------------0-0--0--0---0-------
D------------3------3--3--0-------
A-------------------------2-------
E-------------------------3-------       
       

        C              F    
Un cachito de tu corazon    
e----------------------------5---
B-----------------------1---8-8--
G----------------------0-0-7----- CUANDO LLEGA AL F
D---------------------3----------  HACE EL PUNTEO 
A--------------------------------
E--------------------------------                  
C                   F     
un cachito de tu corazon  
e----------------------------5-0-
B-----------------------1---8-8-- (CAMBIA )
G----------------------0-0-7----- CUANDO LLEGA AL F
D---------------------3----------  HACE EL PUNTEO 
A--------------------------------
E--------------------------------        
C                      F    G
un cachito de tu corazon    
e------------------------------3------
B-----------------------1----3---3--3-
G----------------------0-0----4---4--- CUANDO LLEGA AL F
D---------------------3---------------  HACE EL PUNTEO 
A-------------------------------------
E-------------------------------------              
C                      F    G
soy un adicto de tu corazon
 
SOLO:

    C               F                G            C 
e|--5-5-5-3-3-3-1-1-1-0-1----3---5----7--8-7----8-7-----8-7-5--
B|---------------------------------------8-8-8--8-8-8-8-8-8-6--
G|--5-5-5-4-4-4-2-2-2-0-2-2/4-4/5--5/7-------9------9-9--------
D|-------------------------------------------------------------
A|-------------------------------------------------------------
E|-------------------------------------------------------------

            F         G     C
e|--12-12-10-5----------0-------5-3--|
B|--13-13-10---8-6----1-----1-3------|
G|-----------5-------0-0---0-0-------|
D|-------------9-7-------------------|
A|------------------3----------------|
E|------------------------3----------|

    C
e|--8-8-8-8-8--8-8-8-8--8-8-8-8-8-8--8-7-5-7--|  X2 
B|--8-8-8-8-8--8-8-8-8--8-8-8-8-8-8--8-8-8-8--|  
G|--7-7-7-7-7--7-7-7-7--7-7-7-7-7-7-----------|  
D|--------------------------------------------|  
A|--------------------------------------------|  
E|--------------------------------------------| 
   C                 F   G
Pequeñita de mi corazon 
   C                 F   G
Pequeñita de mi corazon 
   C                 F   G
Pequeñita de mi corazon 
   C                 F   G
Pequeñita de mi corazon
Aviso: Este fichero es trabajo propio de su transcriptor y representa su interpretación personal de la canción. El material contenido en esta página es para exclusivo uso privado, por lo que se prohibe su reproducción o retransmisión, así como su uso para fines comerciales.
comentario del colaborador: dudas consultas [email protected]

Califica esta canción


Comentarios en Facebook