Enviado por: rykard0 el pana
Agrandar Letra
Reducir Letra
Imprimir

Acordes:
½ tono
| +0 |
½ tono
||
Volver

Otras Versiones de Who Says:

Selena Gomez, Who Says

Esto es una combinación entre Angelukz, un usuario de tusacordes.com [intro] y http://tabs.ultimate-guitar.com/ [acordes]

Intro
|---4-4-4--2-2-2-2-2--4-4-4--5-5-5-5-5---------------------------|
|---5-5-5--5-5-5-5-5--5-5-5--5-5-5-5-5---------------------------|
|----------------------------------------------------------------|
|----------------------------------------------------------------|
|----------------------------------------------------------------|
|----------------------------------------------------------------|

|---4-4-4--2-2-2-2-2--4-4-4--5-5-5-5-5---------------------------|
|---5-5-5--5-5-5-5-5--5-5-5--5-5-5-5-5---------------------------|
|----------------------------------------------------------------|
|----------------------------------------------------------------|
|----------------------------------------------------------------|
|----------------------------------------------------------------|

E
You made me insecure
Told me I wasn\'t good enough
A
But who are you to judge
When you\'re a diamond in the rough
E
I\'m sure you got some things
You\'d like to change about yourself
A
But when it comes to me
I wouldn\'t want to be anybody else

E
Na na na
Na na na
A
I\'m no beauty queen
I\'m just beautiful me
E
Na na na
Na na na
A
You\'ve got every right
To a beautiful life
Come\'on

[Chorus]

E
Who says
Who says you\'re not perfect
                     A 
Who says you\'re not worth it
Who says you\'re the only one that\'s hurting
E
Trust me
That\'s the price of beauty
                      A 
Who says you\'re not pretty
                      B
Who says you\'re not beautiful
Who says

[Verse 2]
E
It\'s such a funny thing
How nothing\'s funny when it\'s you
A
You tell \'em what you mean
But they keep whiting out the truth
E
It\'s like a work of art
That never gets to see the light
A
Keep you beneath the stars
A
Won\'t let you touch the sky
E
Na na na
Na na na
A
I\'m no beauty queen
I\'m just beautiful me
E
Na na na
Na na na
A
You\'ve got every right
To a beautiful life
C\'mon

[Chorus]
E
Who says
Who says you\'re not perfect
                     A 
Who says you\'re not worth it
Who says you\'re the only one that\'s hurting
E
Trust me
That\'s the price of beauty
                      A 
Who says you\'re not pretty
                     B
Who says you\'re not beautiful

[Bridge]

Who says
E
Who says you\'re not star potential
Who says you\'re not presidential
Who says you can\'t be in movies
E             B
Listen to me, listen to me
A
Who says you don\'t pass the test
Who says you can\'t be the best
A
Who said, who said
Won\'t you tell me who said that
Yeah, oh

[Chorus]
E
Who says
Who says you\'re not perfect
                     A 
Who says you\'re not worth it
Who says you\'re the only one that\'s hurting
E
Trust me
That\'s the price of beauty
                      A 
Who says you\'re not pretty
                     
Who says you\'re not beautiful, Who Says
Aviso: Este fichero es trabajo propio de su transcriptor y representa su interpretación personal de la canción. El material contenido en esta página es para exclusivo uso privado, por lo que se prohibe su reproducción o retransmisión, así como su uso para fines comerciales.

Califica esta canción


Comentarios en Facebook