Enviado por:
AronBajo

Camila, De Mi

Este es la primer cacion k subo con akorde espero k les sirva ya k son los correctos les akonsejo k 
kuando kieran sakar una cacion aparte de eskucharla miren en vivo komo la tokan se van a dar cuenta k estos son  los acordes correctos Attentamente: Aaron Bajo

Em Am F Em

Em
Nunca había sentido algo así 
Am
la vida me mantuvo siempre en paz 
F
llegaste a abrir las puertas del dolor 
      G        D 
y a regalar la soledad 

Em
Tu piel envenenó mi corazón 
Am
dejándome en completa oscuridad 
F
y así en lugar de olvidarte yo 
   G             D                 
te fui queriendo mucho más 


[pre]
    Am  
Y ahora estás aquí 
    Em
viéndome sufrir. 

[coro]
      F
Dime, cómo debo hacer 
                        G
para olvidarme de tus besos 
                        Am
y sacarte para siempre de mi. 
Em         F	  Gm
De mi... De mi... De mi... 


Em
Lo supe en el momento en que te vi 
Am
quererte iba a dolerme de verdad 
F
pero volví a mirarte y comprendí 
     G                D            
que iría contigo hasta el final. 


[pre]
       Am
Y ahora estás aquí 
Em
viéndome sufrir 

[coro]
       F
Dime, cómo debo hacer 
                      G
para olvidarme de tus besos 
                      Am
y borrar tu nombre de mi 
Em         F	  Gm
De mi... De mi... De mi... 

[puente]
Am
Intente alejarme 
Em
no pensarte más, no pensarte más 
Am
me dolió entregarme 
Gm
como nunca lo hice jamás 


Am Em Am Em F Gm

 E------------------------------------------------------
 B------------------------------------------------------
 G------------------------------------------------------
 D--0-0-2-0-2/4-4-4-----2-4-5-4-2-2/4-------------------
 A-------------------------------------5/2-2------------
 E--------------------------------------------5-7-5-5/7-


e----------------------------------------------------------------
B--------------------------------------------2-3-2h3p2-----------
G-----------------------------2/4-4*-4*-4*-4*-4*------------2-4--
D-0-2-2/4-0--0-0-0-0--2-2-4-5-----------------------------4------
A----------------------------------------------------------------
E----------------------------------------------------------------


e---------------------------------------------------------------
B-2h3-2h3p2-----------2-3-5-3-5/7-[7*-7*-7*-7h8p7-7*-7*-7*-7*-7*]
D------------2----4--4------------------------------------------
G---------------4-----------------------------------------------
A---------------------------------------------------------------
E---------------------------------------------------------------

[coro]
Los mismos akordes


De mi. De mi. De mi. De mi.
Aviso: Este fichero es trabajo propio de su transcriptor y representa su interpretación personal de la canción. El material contenido en esta página es para exclusivo uso privado, por lo que se prohibe su reproducción o retransmisión, así como su uso para fines comerciales.

Califica esta canción


Comentarios en Facebook