Enviado por:
na97

Camila, Coleccionista De Canciones

INTRO:
e|---------|----------|-----------|------------|
B|-3/5-5/7-|2/3--3/5--|-0---------|------------|
G|-2-------|----------|------0----|------------|
D|---------|----------|-----0-0---|------------|
A|-2-------|0---------|-----------|------------|
E|---------|----------|-3---------|----------3-|

e|---------|----------|-----------|------------|
B|-3/5-5/7-|2/3--3/5--|-0---------|------------|
G|-2-------|----------|----0-2-0--|------------|
D|---------|----------|---0-0-0-0-|------------|
A|-2-------|0---------|-----------|------------|
E|---------|----------|-3---------|------------|

Verso 

e|--------------------|---------------|------3-2-------|
B|-------3--2---------|-------3-------|----------0-----|
G|----2-----------2---|----------2----|-----0------3---|
D|-0-----------0------|----0----------|---0------------|
A|--------------------|-2-----------2-|----------------|
E|--------------------|---------------|-3------------3-|

e|--------3--3/5---|--------------------|--------------|
B|----3------3/5---|-------3--2-----0^3-|--------------|
G|------2----------|----2-------2^3-----|----2/4-------|
D|---2-------------|-0----------2-------|---------4----|
A|-0---------------|--------------------|-2---------2--|
E|-----------------|--------------------|--------------|

e|------3-2-------|-------------------|
B|---------0------|--------3--2-------|
G|-----0------3---|------2--------2---|
D|---0------------|----2--------2---2-|
A|----------------|-0---------1-------|
E|-3------------3-|-------------------|

Pre coro:
 
e|---------------|-------------|---------------|-----------2-|
B|---------2--3--|-------------|---------2--3--|----------2--|
G|-----4-4-----4-|-------------|-----4-4-------|---------2---|
D|----4-4--------|----2-----4--|-2-------------|---2----4----|
A|-2-------------|---2-2---4-4-|---------------|--2----4-----|
E|---------------|-0-----2-----|---------------|-0--0-2------|

la otra parte del pre-coro y el coro la pueden ver en el video.
Porque no me dio tiempo de copiarla.
Aviso: Este fichero es trabajo propio de su transcriptor y representa su interpretación personal de la canción. El material contenido en esta página es para exclusivo uso privado, por lo que se prohibe su reproducción o retransmisión, así como su uso para fines comerciales.
comentario del colaborador: esta cancion la copie de un video de youtube muy bueno aqui les dejo el link. comenten: http://www.youtube.com/watch?v=IReM0_iifZs

Califica esta canción


Comentarios en Facebook