Acordes y tablaturas para guitarra

Acordes y Tablaturas
Usuario: Password:

Buscar:
Acordes y Tablaturas >> Letra A >> Acordes de Avenged Sevenfold >> Nightmare
Tablatura de Nightmare, Avenged Sevenfold

Nightmare

Avenged Sevenfold






NITHMARE avenged sevenfold

--------------------
-----10-9-8----
---7--------10--7
----------------------
-----------
-------------


--------------
-----10-9-8--
---7--------10
-----------
-------------------
---------------


-------------
----10-9-8-
--7---------10-7-
-----------
-----------------
--------------


--------------
----10-9-8----
--7--------10-7-
----------------
--------------
---------------

-----------
---------------
----10-9-7---
-9-------------
---------------
--------------

---------------
--------------
-----10-9-7
-10-----------
-----------------
--------

------------------
------------8-11-10-8-10
----9-10---------------
-11----------------
-----------
---------------------------

*APARTIR DE AHORA CON LA DISTORCION MAXIMA

--------------------------                -
-----10-10--9-9--8-8-                     /
-7-7------------------10-7-----7-        /
---------------------------10-          /
------------------                     /
-----------------------               0
                                       /
                                      /      BIS
-----------------------              /
-------8-10-11                      /
-6--9--                            0
------------------                /
------------------               /
---------------                 /

-------------------------------
--12-11-10-9---12b17--15--19
-------------------------------
-----------------------------
---------------------------
----------------------------

Que te parecio? Calificalo con estrellas!!

Rating: 7.2/10 (87 votos)

Este fichero es trabajo propio de su transcriptor y representa su interpretación personal de la canción. El material contenido en esta página es para exclusivo uso privado, por lo que se prohibe su reproducción o retransmisión, así como su uso para fines comerciales.


Deja tus comentarios:
Letras de canciones | Musica Independiente