Enviado por: danielxd99
Agrandar Letra
Reducir Letra
Imprimir



Musica Clasica, Pequeña Serenata Nocturna

e|-3----3----3----3---7--10------
B|----3----3----3----------------
G|-------------------------------
D|-------------------------------
A|-------------------------------
E|-------------------------------

e|-8--5-8--5-8--5-2--5-----------
B|---------------------3---------
G|-------------------------------
D|-------------------------------
A|-------------------------------
E|-------------------------------

e|-3-3--7-5-3-3-2-2--5-8-2-5-3-3-
B|-------------------------------
G|-------------------------------
D|-------------------------------
A|-------------------------------
E|-------------------------------

e|-7-5-3-3-2-2--5-8-2-3-3--------
B|-------------------------------
G|-------------------------------
D|-------------------------------
A|-------------------------------
E|-------------------------------

e|-3-2-0-2-3-3-7-5-3-5-7-7-------
B|-------------------------------
G|-------------------------------
D|-------------------------------
A|-------------------------------
E|-------------------------------

e|-10-8-7-8-10-------------------
B|-------------------------------
G|-------------------------------
D|-------------------------------
A|-------------------------------
E|-------------------------------

e|-10?--12?--10-8-8?--8-7-7?--7-5-5?---
B|-------------------------------------
G|-------------------------------------
D|-------------------------------------
A|-------------------------------------
E|-------------------------------------

e|-3-2-0-2-3-5-7--------
B|----------------------
G|----------------------
D|----------------------
A|----------------------
E|----------------------

e|-10?-12?-10-8-8-8-8-7-7-7-7-5-5-5-3-2-0-2-3-
B|--------------------------------------------
G|--------------------------------------------
D|--------------------------------------------
A|--------------------------------------------
E|--------------------------------------------

e|-3-5-2-7---7-8-5-10---12-14-15-
B|-------------------------------
G|-------------------------------
D|-------------------------------
A|-------------------------------
E|-------------------------------

e|-10-7-3-7-10-15-10-15-19-5?-14-15---
B|------------------------------------
G|------------------------------------
D|------------------------------------
A|------------------------------------
E|------------------------------------

e|-10-7-3-7-10-15-10-15-19-5?-14-15---
B|------------------------------------
G|------------------------------------
D|------------------------------------
A|------------------------------------
E|------------------------------------

e|-15--15---------------
B|-----7----------------
G|----------------------
D|----------------------
A|----------------------
E|----------------------
Aviso: Este fichero es trabajo propio de su transcriptor y representa su interpretación personal de la canción. El material contenido en esta página es para exclusivo uso privado, por lo que se prohibe su reproducción o retransmisión, así como su uso para fines comerciales.
comentario del colaborador: Es mi primer ta basi que es nose

Califica esta canción


Comentarios en Facebook