Acordes y tablaturas para guitarra

Acordes y Tablaturas
Usuario: Password:

Buscar:
Acordes y Tablaturas >> Letra M >> Acordes de Musica Clasica >> Capricho 24
Tablatura de Capricho 24, Musica Clasica

Capricho 24

Musica Clasica






Acoustic Guitar ( Steel )                         
     E.                        S S S S S E.  S S S S S 
E||--------------------------------------0-------------
B||--------------------------------1-0-----------------
G||--2-------------------------2-2-----2---------1-----
D||------------------------------------------2-2---4-2-
A||----------------------------------------------------
E||----------------------------------------------------


  Niccolo Paganini - Caprice No.24                     
  E.                               S S S S S Q    Q    
---------------------------------------------0---------
---------------------------------------1-0-------------
--2--------------------------------2-2-----2-----------
--------------------------------------------------2~---
-------------------------------------------------------
-------------------------------------------------------


  E.  S S S S S E.  S S S S S  
----------------0-------------|
----------1-0-----------------|
--2---2-2-----2---------1-----|
--------------------2-2---4-2-|
------------------------------|
------------------------------|


  E.  S S S S S Q    Q      
----------------0----------|
----------1-0--------------|
--2---2-2-----2------------|
---------------------2~----|
---------------------------|
---------------------------|


  E.  S S S S S E.  S S S S S  
--5---5-5-6-5-3-1-------1-0---|
--------------------3-3-----3-|
------------------------------|
------------------------------|
------------------------------|
------------------------------|


  E.  S S S S S E.  S S S S S  
--3---3-3-5-3-1-0-------0-----|
--------------------1-1---3-1-|
------------------------------|
------------------------------|
------------------------------|
------------------------------|


  E.  S S S S S E.  S S S S S  
--1-------------0-------------|
------0-0-3-1-0---------1-0---|
--------------------2-2-----2-|
------------------------------|
------------------------------|
------------------------------|


  E.  S S S S S Q    Q     
----------0---------------|
------4-----3-0-----------|
----------------2---------|
--3-----2-----------------|
---------------------0----|
--------------------------|


                 |---3---|            |---3--|   
  T  T   S  S  S E   E   E  T T S S S E   E  E   
--5h-8h-12p-8-------------------7---------------|
--------------10--------------9---9-------------|
-----------------9----------9-------9-----------|
--------------------10p--7------------9p--6-----|
---------------------------------------------7--|
------------------------------------------------|


                 |---3--|              
  T  T   S  S  S E   E  E  Q    Q      
--5h-8h-12p-8-------------------------|
--------------10----------------------|
-----------------9---------9----------|
--------------------10--7-------------|
--------------------------------7~----|
--------------------------------------|


                 |---3--|            |--3--|   
  T  T   S  S  S E   E  E  T T S S S E  E  E   
--5h-8h-12p-8------------------7--------------|
--------------10-------------9---9------------|
-----------------9---------9-------9----------|
--------------------10--7------------9--6-----|
-------------------------------------------7--|
----------------------------------------------|


                |---3--|              
  T  T   S S  S E   E  E  Q    Q      
--5h-8h-12-8-------------------------|
-------------10----------------------|
----------------9---------9----------|
-------------------10--7-------------|
-------------------------------7~----|
-------------------------------------|


                   |---3---|                 |---3---| 
  T   T   S  S  S  E   E   E  T  T  S  S  S  E   E   E 
--9h-12h-17-------------------------------------10--13-
------------17------------------------------10---------
---------------18------------------------10------------
------------------19----------0-------12---------------
----------------------19--16-------12------------------
--------------------------------13---------------------


                  |---3---|            |---3--|   
   T  T  S  S  S  E   E   E  T T S S S E  E   E   
-----10-15-----------------------------3--8--12--|
--12-------15------------------------5-----------|
--------------16-------------------5-------------|
-----------------17--------------5---------------|
---------------------17--14----7-----------------|
-----------------------------8-------------------|


                 |--3--|                |--3--|   
   T   T  S S  S E  E  E   T  T  S S  S E  E  E   
--13p-10------------------12p-8------------------|
---------12-9-------------------10---------------|
--------------10-7-----------------9-------------|
--------------------9--6-------------10-7--------|
-------------------------------------------7-----|
----------------------------------------------8--|


            |--3--|             
  T T S S S E  E  E  Q    Q     
-------------------------------|
------0---6----5---------------|
--------7----------------------|
--0---------------6--7---------|
----8-------7-------------0----|
-------------------------------|


  S  S  S  S  S S S S S S S S S S  S  S  
----------------------0---0---0---------|
----------------0---3---4---4---3p-1p-0-|
------------------5---------------------|
--7p-6h-7p-6h-7-------------------------|
----------------------------------------|
----------------------------------------|


  S  S  S  S  S S  S  S S S S S E  E   
------------------------0---0---0-----|
----------------0h-1h-3---4---4-------|
--2p-1h-2p-1h-2-----------------------|
-----------------------------------2--|
--------------------------------------|
--------------------------------------|


  S  S  S  S  S S  S  S S S S S S S  S  S  
------------------------0---0---0---------|
----------------0h-1h-3---4---4---3p-1p-0-|
--2p-1h-2p-1h-2---------------------------|
------------------------------------------|
------------------------------------------|
------------------------------------------|


  S  S  S  S  S S  S  S S S S S E  E   
------------------------0---0---0-----|
----------------0h-1h-3---4---4-------|
--2p-1h-2p-1h-2-----------------------|
-----------------------------------2--|
--------------------------------------|
--------------------------------------|


  S  S  S  S  S  S  S  S S  S  S  S  S S  S S  
--5p-4h-5p-4h-5p-3p-1p-0---------------0h-1---|
-------------------------3p-2h-3p-2h-3------3-|
----------------------------------------------|
----------------------------------------------|
----------------------------------------------|
----------------------------------------------|


  S  S  S  S  S  S  S S  S  S  S  S  S  S S S  
--3p-2h-3p-2h-3p-1p-0---------------------0---|
----------------------3p-1p-0h-1p-0h-1h-3---1-|
----------------------------------------------|
----------------------------------------------|
----------------------------------------------|
----------------------------------------------|


  S  S  S  S  S S  S  S S S S S S S S S  
--1p-0h-1p-0h-1---------0---0---0-------|
----------------3p-1p-0---4---4---1-0---|
--------------------------------------2-|
----------------------------------------|
----------------------------------------|
----------------------------------------|


  Tempo Decresendo                                   
  S                S S S S S S S  S  S  S  S  Q      
---------------------------1-0----------------------|
--0------------------0---0--------------------------|
-------------------3---3-------1h-2p-1h-2p-1h-2~----|
----------------------------------------------------|
----------------------------------------------------|
----------------------------------------------------|


  Q.     E  E  E   Q       Q.     E  E   E   E   E   
--8------5--4--7--12----|--8------5--7--11--13--12--|
---------------0--------|------------0--------------|
------------------------|---------------------------|
------------------------|---------------------------|
---------0--------------|---------0-----------------|
--8---------4--7--12----|--8---------7--11--13--12--|


   Q.     E  E  E   Q       Q.     E  E   E   E   E   
---8------5--4--7--12----|--8------5--7--11--13--12--|
----------------0--------|------------0--------------|
-------------------------|---------------------------|
--10---------------------|---------------------------|
----------0--------------|---------0-----------------|
-------------4--7--12----|--8---------7--11--13--12--|


   Q.     E   E   E   E   E   
--17------9--10--12--13--14--|
-----------------------------|
-----------------------------|
-----------------------------|
-----------------------------|
--17------9--10--12--13--14--|


   Q.     E  E   E   E   E      Q.     E   Q.     E   
--15------7--8--10--11--12--|--13------7--12------5--|
----------0-----------------|----------0-------------|
----------------------------|------------------------|
----------------------------|------------------------|
----------------------------|---------------------0--|
--15------7--8--10--11--12--|--13------7--12---------|


  E   E   E  E  Q    E  E   
--7--13--12--4--7----5-----|
--0-------------0----------|
---------------------------|
---------------------------|
---------------------------|
--7--13--12--4--7----5-----|


  S  S  S  S  S  S  S  S  S  S  S  S  S  S  S  S  
--5-17-16-15-14-13-12-11-13-12-11-13-12----------|
----------------------------------------12-------|
-------------------------------------------13----|
----------------------------------------------14-|
-------------------------------------------------|
-------------------------------------------------|


   S  S  S  S  S  S  S  S  S  S  S  S  E   E   
-----17-16-15-14-13-12-11-13-12-11-13-12------|
----------------------------------------------|
--14------------------------------------------|
------------------------------------------14--|
----------------------------------------------|
----------------------------------------------|


   S  S  S  S  S  S  S  S  S  S  S  S  S  S  S  S  
-----17-16-15-14-13-12-11-13-12-11-13-12----------|
-----------------------------------------12-------|
--14----------------------------------------13----|
-----------------------------------------------14-|
--------------------------------------------------|
--------------------------------------------------|


   S  S  S  S  S  S  S  S  S  S  S  S  E   E   
-----17-16-15-14-13-12-11-13-12-11-13-12------|
----------------------------------------------|
--14------------------------------------------|
------------------------------------------14--|
----------------------------------------------|
----------------------------------------------|


   S  S  S  S  S  S  S  S S  S  S S  S  S  S S  
-----17-16-15-14-13-12-10-9-12----9-10---------|
-------------------------------10------10------|
--14--------------------------------------10-7-|
-----------------------------------------------|
-----------------------------------------------|
-----------------------------------------------|


  S  S  S  S  S  S  S S S  S S S S S S  S  
----15-14-13-12-11-10-8-7-10---7-8--------|
--8--------------------------8-----8------|
-------------------------------------9----|
---------------------------------------10-|
------------------------------------------|
------------------------------------------|


   S  S  S  S  S S S S S  S  S  S S S S S  
-----13-12-11-10-9-8-7---12-11-10-9-8-7-5-|
-----------------------5------------------|
--10--------------------------------------|
------------------------------------------|
------------------------------------------|
------------------------------------------|


  S S S S S S S S S  S  S  S  S  S  S  S  
--------------------17-------------------|
--6-5-4-3-2-1-0--------17----------------|
----------------1-2-------17-14----------|
--------------------------------14-------|
-----------------------------------15-12-|
-----------------------------------------|


  E   S S S S E  E   S S  S S E   
----------0---------11---12------|
---------------------------------|
-----10----------------8----9----|
---------------------------------|
--0-----8---7-0------------------|
-----------------4------------4--|


  E  S S S S E  E   S S  S S E   
---------0---------11---12------|
-----6--------------------------|
----------------------8----9----|
-------3---2--------------------|
-------------0------------------|
--5-------------4---------------|


  E  S S S S E  E   S S  S S E   
---------0---------11---12------|
-----6--------------------------|
----------------------8----9----|
-------3---2--------------------|
--0----------0------------------|
----------------4------------4--|


  E  S S S S E  E   S S  S S E   
---------0---------11---12------|
-----6--------------------------|
----------------------8----9----|
-------3---2--------------------|
-------------0------------------|
--5-------------4---------------|


  E   S  S  S  S E   E  S S S S E   
-----18----17----------------------|
----------------------------6------|
--------15----14--------9----------|
-----------------------------------|
--------------------------7---8----|
--9--------------9--10----------8--|


  E   S  S  S  S E  E  S S S S E   
-----16----15---------------------|
---------------------------5------|
--------13----12-------8----------|
----------------------------------|
-------------------------6---7----|
--7--------------7--8----------8--|


  E  S S S S E  E  S S  S S E   
-----8---7---------9---10------|
-----------0-------------------|
-------5-------------6----7----|
--0----------0--2--------------|
----------------------------8--|
-------------------------------|


  E   S  S  S S E  E  S S S S E   
-----13----12---------8---5------|
---------------------------------|
--------10----9---------5---2----|
--0------------------------------|
----------------7----------------|
-------------------5-------------|


   Q.      S  S  S  S S S S S S S  
--12------10----------------------|
--13------12-13-12-10-9-6-5-3-1-0-|
-------------14-13-10-9-7-5-4-2-1-|
----------------------------------|
----------------------------------|
----------------------------------|


  Q.     S S S S S S Q     
-----------0--------------|
--1------3-1-3-1-0--------|
--2------4---4-2-1-2-1----|
-------------------3-2----|
--------------------------|
--------------------------|


   Q.      S  S  S  S S S S S S S  
--12------10----------------------|
--13------12-13-12-10-9-6-5-3-1-0-|
-------------14-13-10-9-7-5-4-2-1-|
----------------------------------|
----------------------------------|
----------------------------------|


  Q.     S S S S S S Q     
-----------0--------------|
--1------3-1-3-1-0--------|
--2------4---4-2-1-2-1----|
-------------------3-2----|
--------------------------|
--------------------------|


  Q.     S S S S S S S  S  S  S  
-----------0-1-3-5-7-9-10-12-13-|
--2------2--------------0-------|
-------------------0------------|
-------------0-2-3---7----11-12-|
--0------2-4--------------------|
--------------------------------|


  Q.     S S S S S S S S  S  S  
-------------0-1-3-5-7-8-10-12-|
--0------1-3--------------0----|
---------------------0---------|
---------------0-2-3---7----10-|
---------0-2-3-----------------|
--3----------------------------|


   Q.      S  S  Q.      S S  
--13------12-10-12------10-8-|
-----------------------------|
-----------------------------|
--12------10--9-10-------9-7-|
-----------------------------|
-----------------------------|


  E  S S S S S S Q    E  E   
-----0----------------------|
--6----3-1-1-0-0-1----------|
-----------2---1-2----2-----|
--0----3-2---2--------------|
-----7----------------0-----|
----------------------------|


   |---3---|         |---3---|  |---3---|  |---3---|  |
   S   S   S  Q      S   S   S  S   S   S  S   S   S  S
--12h-13p-12-------------------------------------------
-------------13~---------------12h-13p-12--------------
--------------------14h-15p-14------------13h-14p-13---
-----------------------------------------------------14
-------------------------------------------------------
-------------------------------------------------------


   |---3---|        |-3-| |--3--| |--3--| |--3--|     
   S   S   S  Q     S S S S  S  S S  S  S S  S  S E   
--12h-13p-12-----------------------------------------|
-------------13~-------------------------------------|
-----------------------------------------------------|
------------------------------------------6h-7p-6----|
--------------------0---0---------7h-8p-7---------7--|
----------------------7---7h-8p-7--------------------|


   |---3---|         |---3---|  |---3---|  |---3---|  |
   S   S   S  Q      S   S   S  S   S   S  S   S   S  S
--12h-13p-12-------------------------------------------
-------------13~---------------12h-13p-12--------------
--------------------14h-15p-14------------13h-14p-13---
-----------------------------------------------------14
-------------------------------------------------------
-------------------------------------------------------


   |---3---|        |-3-| |--3--| |--3--| |--3--|     
   S   S   S  Q     S S S S  S  S S  S  S S  S  S E   
--12h-13p-12-----------------------------------------|
-------------13~-------------------------------------|
-----------------------------------------------------|
------------------------------------------6h-7p-6----|
--------------------0---0---------7h-8p-7---------7--|
----------------------7---7h-8p-7--------------------|


   |---3---|         |---3---|  |---3--|  |---3---|  |-
   S   S   S  Q      S   S   S  S  S   S  S   S   S  S 
--12h-13p-12----------------------12p-10---------------
-------------14~---------------15----------------------
--------------------14h-15p-14-------------------------
-------------------------------------------------------
-----------------------------------------12h-13p-12----
----------------------------------------------------13-


   |---3---|         |--3--|  |--3--|  |-3-| |--3--| |-
   S   S   S  Q      S  S  S  S  S  S  S S S S  S  S S 
--10h-12p-10--------------------10p-8------------------
-------------12~-------10----13------------------------
--------------------12----12---------------0-----------
-----------------------------------------7-------------
--------------------------------------10-----7h-8p-7---
-----------------------------------------------------8-


   |---3---|          |---3---| |---3--|         |-3-| 
   S   S   S   Q      S   S   S S   S  S   Q     S S S 
--10h-12p-10h-13~---------------8h-10p-8h-12~----------
-------------------------------------------------------
-------------------------------------------------------
---------------------------------------------------0---
-------------------------------------------------------
---------------------10h-12p-10------------------8---8-


   |---3---| |--3--| |--3--| |--3--|  |--3-| |--3--|   
   S   S   S S  S  S S  S  S S  S  S  S S  S S  S  S E 
--10h-12p-10---------7h-8p-7-----------------5h-7p-5---
-------------------------------------------------------
-------------------------------------------------------
-------------------------------------------------------
----------------------------------------2p-0-----------
-------------7h-8p-7---------4h-5p-4h-5--------------5-


  E  E  E  E  E  E  E  E     E  E  E  E  E  E  E  E   
-----0--0--0--0--7--7-----|-----0--0--0--0--5--4--0--|
--5--5--3--1--0--0--------|--5--5--3--1--0--4--5-----|
--5--5--4--2--1--------4--|--5--5--4--2--1--------4--|
--7-----------------7--6--|--7--------------3--2--2--|
-----------------7--9-----|--------------------------|
--------------------------|--------------------------|


  E  E  E  E  E  E  E  E     E  E  E  E  E  E  E  E   
--0--0--0--0--0--7--7-----|-----0--0--0--0--5--4--0--|
--1--5--3--1--0--0-----0--|--5--5--3--1--0--4--5-----|
--2--5--4--2--1-----------|--5--5--4--2--1--------4--|
--------------------7--6--|--7--------------3--2--2--|
-----------------7--9-----|--------------------------|
--------------------------|--------------------------|


  E  E  E  E   E   E   E   E   
--0--0--0--0--10--12--13--10--|
--2--3--5--2------------------|
--2--4--6--2--10--12--14--10--|
---------------0---0---0---0--|
------------------------------|
------------------------------|


  E  E  E  E  E  E  E  E     E  E  E  E  E  E  E  E   
--------------0--1--3--0--|--1-----0--1--0-----------|
--0--1--3--0--------------|--0--3--0--0--1--3--1--2--|
--------------0--0--0--0--|-----4-----------4--2--0--|
--0--2--3--0-----0--2-----|--0--0--0--0--------------|
--------------3--------3--|--------------3--2--0--0--|
--3--3--3--3--------------|--------------------------|


  E  E  E  E  Q    E  E   
-----5--5--4--5----------|
--3----------------------|
-----5--5--4--5----------|
--3--------2--7----------|
--5--6--7----------------|
-------------------5-----|


  S S S S S S S S S S S  S S S S S  
--8-5-------0-----7-4-0-10-7-0-4-0-|
------5-------1--------------------|
--------5-2-----2------------------|
-----------------------------------|
-----------------------------------|
-----------------------------------|


  S S S S S S S S S S S S S S E   
--8-5-0-----0-----7-4-0-0--------|
--------------1-----------0------|
--------5-2-----2-----------1----|
------------------------------2--|
---------------------------------|
---------------------------------|


  S S S S S S S S S S S  S S S S S  
--8-5-------0-----7-4-0-10-7-0-4-0-|
------5-------1--------------------|
--------5-2-----2------------------|
-----------------------------------|
-----------------------------------|
-----------------------------------|


  S S S S S S S S S S S S S S E   
--8-5-0-----0-----7-4-0-0--------|
--------------1-----------0------|
--------5-2-----2-----------1----|
------------------------------2--|
---------------------------------|
---------------------------------|


   S S  S S  S  S  S  S  S  S  S  S  S S S S  
--12-9------------------------10-------------|
-------10------------------------10----------|
----------9-------------------------10-7-----|
------------11-----------------------------0-|
---------------12-10---------------------8---|
---------------------12-13-10----------------|


   S S S S S S S S S S S S S S S S  
--10-7-----------------8---0-------|
-------8-6---0-----------8---------|
-----------7-----------------5-----|
---------------3-0-2-----------2---|
---------------------3-----------3-|
-----------------------------------|


  S S S S S S S S S S S S S S S S  
--7-5-4---------------------------|
--------6-5-3---0-----------------|
--------------5---2-0-------------|
----------------------3-2-0-------|
----------------------------3-2-0-|
----------------------------------|


  S S S S S S S S S S S S E  E   
------5-------7-4-5-------------|
--------6-----------5-----------|
----------------------5-2-------|
--3-0-----6---------------------|
------------7-------------0-----|
--------------------------------|


   Q.      S  S  S  S  S  S  S  S  S  S  
--17---------20-19-17-16-14-12-14-16----|
----------17-------------------------17-|
----------------------------------------|
----------------------------------------|
----------------------------------------|
----------------------------------------|


   Q    S  S  S  S  E.   S  Q     
--17----L-19-20-22-23---24-------|
---------------------------------|
---------------------------21----|
---------------------------------|
---------------------------------|
---------------------------------|


   Q.      S  S  S  S  S  S  S  S  S  S  
--17---------20-19-17-16-14-12-14-16----|
----------17-------------------------17-|
----------------------------------------|
----------------------------------------|
----------------------------------------|
----------------------------------------|


   Q    S  S  S  S  E.   S  Q     
--17----L-19-20-22-23---24-------|
---------------------------------|
---------------------------21----|
---------------------------------|
---------------------------------|
---------------------------------|


   Q    S  S  S  S  S  S  S  S  S  S  S  S  
--17----L-24-21----------------------------|
----------------22-------------------------|
-------------------24-21-------------------|
-------------------------23-19-17-15-14-12-|
-------------------------------------------|
-------------------------------------------|


   Q    S  S  S  S  S  S  S  S  S S S S  
--15----L-22-19-------------------0-----|
----------------20----------------------|
-------------------22-19------------7-5-|
-------------------------21-17-15-------|
----------------------------------------|
----------------------------------------|


   Q    S  S S S S S S S S S S S  
--13----L-10-7-5-4-0-------0-5-3-|
---------------------3-0-1-------|
---------------------------------|
---------------------------------|
---------------------------------|
---------------------------------|


  S  S S S S  S  S  S  Q     E  E   
--1-10-7-5-4-19-16-----------------|
-------------------17--------------|
-----------------------------------|
----------------------18----19-----|
-----------------------------------|
-----------------------------------|


  S S S S S S S S T T T T T T T T  S  S  S  S  
----0---0---0---0-----------0-4-7-12-16-19-24-|
------------0---1---------0-------------------|
------------------------1---------------------|
----7---7-6---2-------2-----------------------|
--7---7-------0-----2-------------------------|
--9---8---7-------4---------------------------|


  S S S S S S S S S  S S S S S S S  
----0---0---7---5---12-7-----------|
------------5------------9---------|
----------------5----------9-------|
----7---7-6-------2----------9-6---|
--7---7-------7------------------7-|
--8---8---7---5---4----------------|


  S S S S S S S S T T T T T T T T  S  S  S  S  
----0---0---0---0-----------0-4-7-12-16-19-24-|
------------0---1---------0-------------------|
------------------------1---------------------|
----7---7-6---2-------2-----------------------|
--7---7-------0-----2-------------------------|
--9---8---7-------4---------------------------|


  S S S S S S S S S  S S S S S S S  
----0---0---7---5---12-7-----------|
------------5------------9---------|
----------------5----------9-------|
----7---7-6-------2----------9-6---|
--7---7-------7------------------7-|
--8---8---7---5---4----------------|


  S S S S S  S S  S T  T T S T T T  S  S  S  S  
----9---9---10---12--------------5-10-13-17-22-|
-----------------10------------6---------------|
----9---9---10-6-------------7-----------------|
--7---7---7----------------7-------------------|
----------5----7----8----8---------------------|
--9---9---------------10-----------------------|


  S S S S S S S  S T T T S T T T S  S  S  S  
----7---7---8---10-----------0-3-8-12-15-20-|
--------------0--8--------------------------|
--0-7-0-7-0-9------------0-5----------------|
--------------0-----------------------------|
-------------------7---7--------------------|
--7---7---8----------8----------------------|


  S  S S  S S S S S S S S S S S S  S  
----10---10---8---7---5---7---8---14-|
--0----0----------5-------5-------13-|
----10---10---9-------5-------9-5----|
--0----0----7---6-------6---7--------|
--------------------7-----------6----|
------------8---7---5---7---0--------|


   |--3--| |--3-| |-3-| |--3--| |--3-| |-3-|  |--3-| |-
   S  S  S S  S S S S S S  S  S S  S S S S S  S  S S S 
----------------8-------0h-4h-7------------0h-5p-0-----
-------------10-------0------------------1-------------
-----------9---------------------------2-----------5-2-
--------10----------6----------------2-----------------
-----12-----------7-------------0h-3-------------------
--12---------------------------------------------------


  |--3-| |-3-|  |--3-| |-3-| |--3-| |--3-|             
  S  S S S S S  S  S S S S S S  S S S S  S   S   S   S 
-------------0h-5p-0------------------1h-5h-10h-13h-17h
-----------2---------2--------------3------------------
---------2-------------2----------2--------------------
-------2-----------------2---0h-3----------------------
--0h-4---------------------4---------------------------
-------------------------------------------------------


                  |-3-| |-3-| |-3-| |-3-|  
  S S S S S S S S S S S S S S S S S S S S  
--------1---4---------------0-5-0---------|
----3---3-0-6---3---------1---------------|
----4-1---------4-------2---------5-2-----|
--3-------0---3-------2---------------2---|
------2-----------0-3-------------------3-|
--4-----------4---------------------------|


  |--3-| |-3-|  |--3-| |-3-| |--3-| |--3-|             
  S  S S S S S  S  S S S S S S  S S S S  S   S   S   S 
-------------0h-5p-0------------------1h-5h-10h-13h-17h
-----------2---------2--------------3------------------
---------2-------------2----------2--------------------
-------2-----------------2---0h-3----------------------
--0h-4---------------------4---------------------------
-------------------------------------------------------


                  |--3-| |-3-|  |--3-| |-3-|  
  S S S S S S S S S  S S S S S  S  S S S S S  
--------1---4----------------0h-5p-0---------|
----3---3-0-6---3----------2---------2-------|
----4-1---------4--------2-------------2-----|
--3-------0---3--------2-----------------2---|
------2-----------0h-4---------------------4-|
--4-----------4------------------------------|


  T  T T T T T  T  T  T T T T T  T T T T T T T  T  T   
-------------0h-5h-9p-5----------------------0h-5h-9h-1
-----------2------------5------------------2-----------
---------2----------------6--------------2-------------
-------2--------------------7----------2---------------
--0h-4------------------------7p-4---4-----------------
-----------------------------------5-------------------


  T T T T T T  T   T   T  T  T  T  T   T   T  T T T T T
------------5h-9h-12h-17-------------------------------
-------------------------17----------------------------
----------6-----------------18-------------------------
--------7----------------------19----------------------
--0---7-----------------------------------------0---0-0
----9-----------------------------16h-17p-12p-9---7-2--


                                        ^     
  T T T T T T T T T T T T T T T T E  E  Q     
----------------------------------------5----|
----------------------------------------5----|
----------------------------------------6----|
----------------------------------------7----|
--0-2-0-0-2-2-0-2-2-0-2-2-0-0-2-0----0--7----|
------2---0-----0-----0---2-----2-4-----5----|


  W                  
-------------------||
-------------------||
-------------------||
-------------------||
-------------------||
-------------------||

Que te parecio? Calificalo con estrellas!!

Rating: 5.5/10 (11 votos)

Este fichero es trabajo propio de su transcriptor y representa su interpretación personal de la canción. El material contenido en esta página es para exclusivo uso privado, por lo que se prohibe su reproducción o retransmisión, así como su uso para fines comerciales.


Comentario de chop0n
si les sirve esta tablatura porfavor suscribanse
Deja tus comentarios:
Letras de canciones | Musica Independiente