Acordes y tablaturas para guitarra

Acordes y Tablaturas
Usuario: Password:

Buscar:
Acordes y Tablaturas >> Letra B >> Acordes de Beethoven >> Claro De Luna
Tablatura de Claro De Luna, Beethoven

Claro De Luna

Beethoven






S S S S S S S S S S S S  
E||--------------------------|
B||------1-----1-----1-----1-|
G||----2-----2-----2-----2---|
D||--2-----2-----2-----2-----|
A||--0-----------------------|
E||--------------------------|


  S S S S S S S S S S S S    S S S S S S S S S S S S  
--------------------------|--------------------------|
------1-----1-----1-----1-|------1-----1-----3-----3-|
----2-----2-----2-----2---|----2-----2-----3-----3---|
--2-----2-----2-----2-----|--3-----3-----3-----3-----|
--------------------------|--------------5-----------|
--3-----------------------|--1-----------------------|


  S S S S S S S S S S S S  
--------------------------|
------3-----1-----0-----0-|
----1-----2-----2-----1---|
--2-----2-----2-----0-----|
--------------------------|
--0-----------0-----------|


  S S S S S S S S S S S T T  
--------------------0-----0-|
------------1-----1-----1---|
--2---2---2-----2-----2-----|
--2-2---2-----2-----2-------|
--0-------------------------|
----------------------------|


  S S S S S S S S S S S T T  
--0-----------------0-----0-|
------3-----3-----3-----3---|
----4-----4-----4-----4-----|
--------2-----2-----2-------|
----------------------------|
--0-------------------------|


  S S S S S S S S S S S S    S S S S S S S S S S S S  
--0-----------1-----------|--0-----------------3-----|
------1-----1-----3-----3-|------1-----1-3---0-----0-|
----2-----2-----2-----2---|----0-----0-----------0---|
--2-----2-----0-----3-----|--2-----2-----3-0---3-----|
--0-----------------------|--------------------------|
--------------------------|--3-----------3-----------|


  S S S S S S S S S S S S  
--------------------------|
--1---1-----1-----1-----1-|
----0-----0-----0-----0---|
--2-----2-----2-----2-----|
--3-----------------------|
--------------------------|


  S S S S S S S S S S S T  T  
-----------------------------|
-----------------------------|
------5-----5-----5-8---5h-8-|
----5-----5-----5-----5------|
--6-----6-----6-----6--------|
--8--------------------------|


  S S S S S S S S S S S T T  
----------------------------|
--4-----------------4-----4-|
------6-----6-----6-----6---|
----5-----5-----5-----5-----|
--------6-----6-----6-------|
--6-------------------------|


  S S S S S S S S S S S S    S S S S S S S S S S S S  
--------------------------|--------------------------|
--4---------------1-3---1-|--3-----------4-----1-----|
------5-----5---2-----2---|------3-----3---0-2---0-2-|
----6-----6---1-----0-----|----5-----5---1-----1-----|
--6-----6-----------------|--5-----5-----3-----------|
--4-----3-----2-----------|--3-----------------------|


  S S S S S S S S S S S S    S S S S S S S S S S S S  
--------------------------|--------------------3-----|
--3-----------3-----------|------3-----3-----3-----3-|
------3-----3-----2-----2-|----3-----3-----4-----4---|
----5-----5-----4-----4---|--5-----5-----5-----5-----|
--5-----5-----5-----5-----|--------------------------|
--------------------------|--3-----------------------|


  S S S S S S S S S S S S    S S S S S S S S S S S S  
--4-----------------2-----|--3-----------------3-----|
------4-----4-----4-----4-|------3-----3-----3-----3-|
----5-----5-----5-----5---|----4-----4-----4-----4---|
--5-----5-----5-----------|--5-----5-----5-----5-----|
--------3-----------3-----|--------------------------|
--------------------------|--3-----------------------|


  S S S S S S S S S S S S    S S S S S S S S S S S S  
--4-----------------2-----|--3-----------3-----------|
------4-----4-----4-----4-|------3-----3-------------|
----5-----5-----5-----5---|----4-----4-----3-6---3-6-|
--5-----5-----5-----------|--5-----5-----5-----5-----|
--------3-----------3-----|--------------------------|
--------------------------|--3-----------0-----------|


  S S S S S S S S S S S S    S S S S S S S S S S S S  
--3---0-----0-1-----------|--------------------------|
------------------3-----3-|--4-----------3-----------|
----2-----2-----2-----2---|------3-----3-----4-----4-|
--------5-----0-----3-----|----5-----5-----3-----3---|
--4-----------------------|--------6-----5-----5-----|
--------------------------|--4-----------4-----------|


  S S S S S S S S S S S S  
--------------------------|
--------------------------|
--7-----------2-----2-----|
------3-----3-----2-----2-|
----5-----5-----5-----4---|
--5-----5-----5-----5-----|


   S S S S S S S S S S S T T  
---------------------5-----5-|
-------------------6-----6---|
-------------7---7-----7-----|
-------7---7---7-----7-------|
-----8---8-------------------|
--10-------------------------|


  S S S S S S S S S S S T T  
--0-------0-----0---5-----5-|
----5-8-----8-----8---5-8---|
----------------------------|
--7-----7-----7-----6-------|
--0-------------------------|
----------------------------|


  S S S S S S S S S S S S    S S S S S S S S S S S S  
--5-----------------5-----|--7---0-----0-----0-7---0-|
------6-----6-9---------6-|--------------------------|
----7-----7-----7-9---7---|----7-----7-----7-----7---|
--7-----7-----------7-----|--6-----6-----6-----6-----|
--5-----------------------|--------------------------|
--------------7-----5-----|--4-----------------4-----|


   S S  S  S S  S S S S S S S  
---8--------------7-----5-----|
-------10------10-0---9-----7-|
-----9-------9------7-----5---|
--10------10------0-----7-----|
---0--------------------6-----|
------------------------------|


  S S S S S S S S S S S S    S S S S S S S S S S S S  
--4-----------------------|--------------------------|
--------5-----6---0-----0-|------0-----0-----0-----0-|
------4-----4-------7-----|--------------------------|
----6-----6-----6-----6---|----6-----6-----6-----6---|
--------------------------|--------7-----8-----5-----|
--0-----------------------|--0-----------------------|


  S S S S S S S S S S S S    S S S S S S S S S S S S  
--------5-----8-----5-----|--------------------------|
------5-----5-----5-----5-|--------------1-----------|
--5-5-----5-----5-----5---|--------2-----------2---2-|
--------------------------|------2-----2-----2-------|
--------------------------|--3-3-----3-----3-----3---|
--0-----------------------|--0-----------------------|


  S S S S S S S S S S S S    S S S S S S S S S S S S  
--------------------1---4-|------------0---5---8-5---|
------------0---3-0---3---|--------1-----1---5-----5-|
--------1-----1-----------|----2-----2---------------|
----3-0---3---------------|------2-------------------|
--2-----------------------|--3-----------------------|
--0-----------------------|--0-----------------------|


  S S S S S S S S S S S S    S S S S S S S S S S S S  
------------------------2-|--------------------4---7-|
----------------1---4-1---|--------0-----0-6-----6---|
------------2-----2-------|----1-------7-----7-------|
----1---4-1---4-----------|--0---3---6---------------|
--0---3-------------------|--------------------------|
--0-----------------------|--0-----------------------|


  S S S S S S S S S S S S    S S S S S S S S S S S S  
--4---1-------------------|--------------------------|
----3---0-3---0-----------|--------------------------|
------------1-----1-------|--------------------------|
----------------3---0-3---|--0---------0-3---0---0-3-|
------------------------2-|------2---------2---0-----|
--------------------------|----4---1-4---------------|


  S S S S S S S S S S S S    S S S S S S S S S S S S  
--------------------------|--------------------------|
--------------------------|--------------------------|
--------------------------|--------------------------|
------2-3-2-----0-3---0-3-|------2-3-2-----0-3---0-3-|
----5-------5-2-----0-----|----5-------5-1-----0-----|
--4-----------------------|--4-----------------------|


  S S S S S S S  S S S  S S  
----------------------------|
----------------------------|
-------------------2------2-|
------2-3-2-----------------|
----5-------5-0h-3---0h-3---|
--4-----------1-------------|


  S  S S S S S S S S S S S  
---------------------------|
---------------------------|
-------2-----2-----1-----1-|
--0h-3-----3-----2-----2---|
--2------2-----2-----2-----|
---------------0-----------|


  S S S S S S S S S S S T T  
--------------------0-----0-|
------------1-----1-----1---|
--2---2---2-----2-----2-----|
----2---2-----2-----2-------|
--0-------------------------|
----------------------------|


  S S S S S S S S S S S T T  
--0-----------------0-----0-|
------3-----3-----3-----3---|
----4-----4-----4-----4-----|
--------2-----2-----2-------|
----------------------------|
--0-------------------------|


  S S S S S S S S S S S S    S S S S S S S S S S S S  
--0-----------1-----------|--0-----------------3-----|
------1-----1-----3-----3-|------1-----1-3---0-----0-|
----2-----2-----2-----2---|----0-----0-----0-----0---|
--2-----2-----0-----3-----|--2-----2-----3-----3-----|
--0-----------------------|--------------------------|
--------------------------|--3-----------3-----------|


  S S S S S S S S S S S T T  
--------------------3-----3-|
------------5-----5-----5---|
--5---5---5-----5-----5-----|
----5---5-----5-----5-------|
--3-------------------------|
----------------------------|


  S S S S S S S S S S S T  T  
--3---1-----1-----1-3---1h-3-|
----3-----3-----3-----3------|
--0-----0-----0-----0--------|
-----------------------------|
--2--------------------------|
-----------------------------|


  S S S S S S S S S S S S  
--3---0-----0-4---0-5-----|
----1-----1-----3-------5-|
--0-----0-------------5---|
--------------------7-----|
--3-----------2-----0-----|
--------------------------|


  S S S S S S  S S  S  S S  S  
--7---0-----0--8--------------|
--0-----0----------10------10-|
----7-----7------9-------9----|
--------------10------10------|
---------------0--------------|
--4---------------------------|


  S S S S S S S S S S S S    S S S S S S S S S S S S  
--6-----------4---0-----0-|--5-----------------5-----|
----3-6---3-6---3-----3---|------5-----5-----5-----5-|
--3-----3-----1-----1-----|----5-----5-----6-----6---|
--0-----------------------|--7-----7-----7-----7-----|
--------------------------|--0-----------------------|
--------------0-----------|--------------------------|


  S S S S S S S S S S S S    S S S S S S S S S S S S  
--6-----------------4---1-|--5-----------------5-----|
------6-----6-----6---3---|------5-----5-----5-----5-|
----7-----7-----7---2-----|----6-----6-----6-----6---|
--7-----7-----7-----0-----|--7-----7-----7-----7-----|
--------5-----3-----------|--0-----------------------|
--------------------------|--------------------------|


  S S S S S S S S S S S S    S S S S S S S S S S S S  
--6-----------------4---1-|--5-----------5-----------|
------6-----6-----6---3---|------5-----5-----6-----6-|
----7-----7-----7---2-----|----6-----6-----7-----7---|
--7-----7-----7-----0-----|--7-----7-----7-----7-----|
--------5-----3-----------|--------------5-----------|
--------------------------|--5-----------------------|


  S S S S S S S S S S S S    S S S S S S S S S S S S  
--3---1-----1-----1-3---0-|--1---0-1-----------0-----|
----3-----3-----3-----1---|----1-----0-3-5---------1-|
--0-----0-----0-----------|----------------4-7---2---|
--------------------------|--3-----3-----6-----2-----|
--2-----------------3-----|--0-----2-----------0-----|
--------------------------|--------------4-----------|


  S S S S S S S S S S S S    S S S S S S S S S S S S  
--------------0-----1-----|--0-----------0-----------|
--3---0-----0-----0-----0-|------1-----1-----0-----0-|
----2-----2-----2-----2---|----2-----2-----1-----1---|
--0-----0-----2-----0-----|--2-----2-----0-----0-----|
--------------------------|--------------------------|
--1-----------0-----------|--0-----------0-----------|


  S S S S S S S S S S S T T  
----------------------------|
--1---------1-----1-----1---|
------2---2-----2-----2-----|
--2-2---2-----2-----2-------|
--0-------------------------|
--------------------0-----0-|


  S S S S S S S S S S S T T  
----------------------------|
------3-----3-----3-----3---|
----4-----4-----4-----4-----|
--2-----2-----2-----2-------|
----------------------------|
--4-----------------0-----0-|


  S S S S S S S S S  S S  T T  
------------5---8-5-12-8------|
--------5-----5----------10---|
----5-----5-------------------|
------7-----------------------|
--7---------------------------|
--5------------------0------0-|


  S S  S S S  S S S S S S T T  
----7-------------------------|
--9------9--------------------|
------10---7-10---7-----------|
----------------9-----6---0---|
--------------------8---7-----|
--0-------------------0-----0-|


  S S S S S S S S S  S S  T T  
------------5---8-5-12-8------|
--------5-----5----------10---|
----5-----5-------------------|
--7---7-----------------------|
--7---------------------------|
--5------------------0------0-|


  S S  S S S  S S S S S S T T  
----7-------------------------|
--9------9--------------------|
------10---7-10---7-----------|
----------------9-----6---0---|
--------------------8---7-----|
--0-------------------0-----0-|


  S S S S S S S S S S S S    S S S S S S S S S S S S  
--------------------------|--------0-----------------|
--------------------------|------1---1---------------|
--------5-----------2-----|----2-------2---2---------|
--7---7---7-------2---2---|--2-----------2---2---2---|
--7-7-------7---3-------3-|--0-----------------3---3-|
--5-----------5-----------|--------------------------|


  Q.     Q.        H.             
---------5------|---------------||
---------5------|---------------||
---------5------|---------------||
---------7------|--7------------||
--0------0------|--0------------||
----------------|---------------||

Que te parecio? Calificalo con estrellas!!

Rating: 5.3/10 (18 votos)

Este fichero es trabajo propio de su transcriptor y representa su interpretación personal de la canción. El material contenido en esta página es para exclusivo uso privado, por lo que se prohibe su reproducción o retransmisión, así como su uso para fines comerciales.


Comentario de chop0n
hola espero les gusta esta hermosa melodia para guitarra porfavor si les sirvio la tablatura suscribanse a mi canal de youtube mrbeatlemaniako gracias seguire subiendo mas tablaturas
Deja tus comentarios:
Letras de canciones | Musica Independiente