Enviado por:
edulunaz

The Beatles, Lucy In The Sky With Diamonds

INTRO

E-----12----12--------12---10-9---
B---10--------10---10----------10-
G-9-----12------11------10--------

  Picture yourself in a boat on a river, With tangerine trees and marmalade skies.
E-----12------12----------12----10-9-----------12----12----------12--8-----8-------
B---10----------10----10------------10------10----------10----10--------10----10---
G-9-------12------11--------10-----------9--------12-------11----------------------

   Somebody calls you, you answer quite slowly,
E------12------12----------12------10-9-------
B----10-----------10----10---------------10---
G--9-------12--------11---------10------------

  A girl with kaleidoscope eyes
E--------12-----------12-----------12-----12-----12------13------13-
B----10--------------------10---14----14-----14------15------15-----
G-9-----------12----------------------------------------------------

Bb                    C
Cellophane flowers of yellow and green,
F                Bb
Towering over your head.
C                          G
Look for the girl with the sun in her eyes,
              D
And she's gone.

G           C        D
Lucy in the sky with diamonds,
G           C        D
Lucy in the sky with diamonds,
G           C        D
Lucy in the sky with diamonds,
C
Ah... Ah.

  Follow her down to a bridge by a fountain,Where rocking horse people eat marshmallow pies.
E-----12------12-----------12----10-9--------------12-----12-------------12-8----8----------
B---10----------10-----10-------------10-------10------------10------10-------10---10-------
G-9-------12-------11--------10-------------9---------12---------11------------------------
   
   Everyone smiles as you drift past the flowers,
E------12------12-----------12------10-9-------
B----10------------10----10---------------10---
G--9-------12---------11---------10------------

  That grow so incredibly high.
E--------12-----------12-----------12-----12-----12------13------13-
B----10--------------------10---14----14-----14------15------15-----
G-9-----------12----------------------------------------------------

Bb                    C
Newspaper taxis appear on the shore,
F                Bb
Waiting to take you away.
C                          G
Climb in the back with your head in the clouds,
              D
And you're gone.

G           C        D
Lucy in the sky with diamonds,
G           C        D
Lucy in the sky with diamonds,
G           C        D
Lucy in the sky with diamonds,
C
Ah... Ah.

  Picture yourself on a train in a station, With plasticine porters with looking glass ties. 
E-----12------12-----------12----10-9-------------12-----12------------12--8----8----------
B---10----------10-----10-------------10------10------------10-----10--------10---10-------
G-9-------12-------11--------10-----------9---------12--------11------------------------

   Suddenly someone is there at the turnstile,
E------12------12-----------12------10-9-------
B----10------------10----10---------------10---
G--9-------12---------11---------10------------

  The girl with kaleidoscope eyes.
E--------12-----------12-----------12-----12-----12------13------13-
B----10--------------------10---14----14-----14------15------15-----
G-9-----------12----------------------------------------------------

G           C        D
Lucy in the sky with diamonds,
G           C        D
Lucy in the sky with diamonds,
G           C        D
Lucy in the sky with diamonds,
C     A 
Ah... Ah.

G           C        D
Lucy in the sky with diamonds,
G           C        D
Lucy in the sky with diamonds,
G           C        D
Lucy in the sky with diamonds,
C     A 
Ah... Ah.
Aviso: Este fichero es trabajo propio de su transcriptor y representa su interpretación personal de la canción. El material contenido en esta página es para exclusivo uso privado, por lo que se prohibe su reproducción o retransmisión, así como su uso para fines comerciales.

Califica esta canción


Comentarios en Facebook