Acordes y tablaturas para guitarra

Acordes y Tablaturas
Usuario: Password:

Buscar:
Acordes y Tablaturas >> Letra S >> Acordes de Sistem Of A Down >> Lonely Day
Tablatura de Lonely Day, Sistem Of A Down

Lonely Day

Sistem Of A Down






Este es mi primer post bueno epero queles guste no  es mio pero el la version original y exacta de la cancion o si hay algun problema diganme y lo arreglo



Guitars 1&3-7:Eb-Ab-Db-Gb-Bb-Eb
Guitar 2: Db-Ab-Db-Gb-Bb-Eb

RIFF A:
Guitar 1
Eb|------------------------------------------------------|
Bb|-------1-----------0------------1------------0--------|
Gb|-----2---2-------2---2--------0---0--------1---1------|
Db|---2-------0---0-------2----2-------0----0-------0----|(5x)
Ab|-0------------------------3---------------------------|
Eb|-------------1-------------------------0--------------|
Such a lonely day and its mine...

Ryth Fig 1:
Guitar 2 (Dist.)
Eb|---------------------------------------------------|
Bb|-10----10------------------------------------------|
Gb|-9-----9-------------------------------------------|
Db|-7-----7-----3-----3-----10-----10-----2-----2-----| (2x)
Ab|-7-----7--0--3-----3--0--10-----10--0--2-----2--0--|
Db|-7-----7--0--3-----3--0--10-----10--0--2-----2--0--|
The Most Loneliest Day of My Life...

RIFF A:
Guitar 1
Eb|------------------------------------------------------|
Bb|-------1-----------0------------1------------0--------|
Gb|-----2---2-------2---2--------0---0--------1---1------|
Db|---2-------0---0-------2----2-------0----0-------0----|(2x)
Ab|-0------------------------3---------------------------|
Eb|-------------1-------------------------0--------------|
Such a lonely day shouldn?t exist...

Play RIFF A (1x) with Guitars 3-5 (1x)
Guitar 3 (clean)                             
Eb|-12----12-----------------------------|
Bb|----13----13-13/15(vib)------13-13-12-|
Gb|--------------------------------------|
Db|--------------------------------------| (1x)
Ab|--------------------------------------|
Eb|--------------------------------------|

Guitars 4&5 (Clean)(Divided)
Eb|--------------------------------------|
Bb|-13----13-----------------------------|
Gb|----14----14/16(vib)---------14-14-13-|
Db|-14----14-----------------------------| (1x)
Ab|----15----15/17(vib)---------15-15-14-|
Eb|--------------------------------------|
Such a lonely day, and its mine.

RIFF A:
Guitar 1
Eb|------------------------------------------------------|
Bb|-------1-----------0------------1------------0--------|
Gb|-----2---2-------2---2--------0---0--------1---1------|
Db|---2-------0---0-------2----2-------0----0-------0----|(1x)
Ab|-0------------------------3---------------------------|
Eb|-------------1-------------------------0--------------|
The most loneliest day of my life.

Guitar 2 (Dist) Play (1x) with Guitars 3-6 (1x)
Eb|-------------------------------------------------|
Bb|------------------------------10--10-10----------|
Gb|------------------------------9---9--9-----------|
Db|-3--3-3-3--2--2-2-2/5--5-5-5--7---7--7--0--------|(1x)
Ab|-3--3-3-3--2--2-2-2/5--5-5-5--7---7--7--0--------|
Db|-3--3-3-3--2--2-2-2/5--5-5-5--7---7--7--0--------|

Guitar 3&6 (Divided)(Clean)                             
Eb|----17-17-17-16-----------------12----------|
Bb|----13-13-13-12--------15-15-15----15-13----|
Gb|--------------------------------------------|
Db|--------------------------------------------|
Ab|--------------------------------------------|
Eb|--------------------------------------------|

Guitar 4&5 (Divided)(Clean)                             
Eb|-----------------------7-7-7-8--7-----------|
Bb|----10-10-10-9---------8-8-8-10-8--10-------|
Gb|----10-10-10-7---------------------9--------|
Db|--------------------------------------------|
Ab|--------------------------------------------|
Eb|--------------------------------------------|
And if you go, I wanna go with you.

Guitar 2 (Dist) Play (1x) with Guitars 3-6 (1x)
Eb|-------------------------------------------------|
Bb|------------------------------10--10-10----------|
Gb|------------------------------9---9--9-----------|
Db|-3--3-3-3--2--2-2-2/5--5-5-5--7---7--7--0--------|(1x)
Ab|-3--3-3-3--2--2-2-2/5--5-5-5--7---7--7--0--------|
Db|-3--3-3-3--2--2-2-2/5--5-5-5--7---7--7--0--------|

Guitar 3&6 (Divided)(Clean)                             
Eb|----17-17-17-16-----------------------------|
Bb|----13-13-13-12--------13b^(13)12-13/15-13--|
Gb|--------------------------------------------|
Db|--------------------------------------------|
Ab|--------------------------------------------|
Eb|--------------------------------------------|

Guitar 4&5 (Divided)(Clean)                             
Eb|--------------------------------------------|
Bb|----10-10-10-9---------10b^(10)-8-10/12-10--|
Gb|----10-10-10-7----------9b^-(9)-7--9/10--9--|
Db|--------------------------------------------|
Ab|--------------------------------------------|
Eb|--------------------------------------------|
And if you die, I wanna die with you.

Guitar 2 (Dist) Play (1x) with Guitars 3-5 (1x)
Eb|---------------------------------------------------|
Bb|---------------------------------------------------|
Gb|---------------------------------------------------|
Db|-3-3-3-3-3-3-3-3-3-3-3-3-2-2-2-2-2-2-2-2-2-2-2-2-0-|(1x)
Ab|-3-3-3-3-3-3-3-3-3-3-3-3-2-2-2-2-2-2-2-2-2-2-2-2-0-|
Db|-3-3-3-3-3-3-3-3-3-3-3-3-2-2-2-2-2-2-2-2-2-2-2-2-0-|
  PM* * * * * * * * * * * * * * * 

Guitar 3
Eb|--------------------------------------------|
Bb|---13-----13----12---12---12---12-----------|
Gb|--------------------------------------------|
Db|--------------------------------------------|
Ab|--------------------------------------------|
Eb|--------------------------------------------|

Guitars 4&5
Eb|--------------------------------------------|
Bb|---10-----10-----9----9----9----9-----------|
Gb|----9------9-----7----7----7----7-----------|
Db|--------------------------------------------|
Ab|--------------------------------------------|
Eb|--------------------------------------------|
 Take your hand and walk a...

(Solo)
Rhythm: Guitar 2

Guitar 2 (Dist) Ryth Fig 2--Play (3x) along with Guitars 3-7 
Eb|----------------------------------------------------|
Bb|-10--10-10------------------------------------------|
Gb|-9---9--9-------------------------------------------|
Db|-7---7--7--0--3---3--3--0--10---10--10--0--2---2-2-0|
Ab|-7---7--7--0--3---3--3--0--10---10--10--0--2---2-2-0|
Db|-7---7--7--0--3---3--3--0--10---10--10--0--2---2-2-0|

Then Play (1x) along with Guitars 3-7 
Eb|-------------------------------------|
Bb|-10----------------------------------|
Gb|-9-----------------------------------|
Db|-7-----0--3-----0--10-----0--2-----0-|
Ab|-7-----0--3-----0--10-----0--2-----0-|
Db|-7-----0--3-----0--10-----0--2-----0-|
...(a)way
Leads/Backing: Guitars 3-7

Play 3 with 4
Guitar 3
Eb|-12-----12-----------------------------------------------------------12-|
Bb|-----------15-13-12---13-12----13-12-----15----13-12-13-15--13-12-12----|
Gb|---------------------------------------13-------------------------------|
Db|------------------------------------------------------------------------|
Ab|------------------------------------------------------------------------|
Eb|------------------------------------------------------------------------|
Guitar 4
Eb|------------------------------------------------------------------------|
Bb|-13-----13-12-------------------------------------------12-----------13-|
Gb|--------------14-12---14-12--------------12----14-12-14-----14-12-12----|
Db|----------------------------------14------------------------------------|
Ab|------------------------------------------------------------------------|
Eb|------------------------------------------------------------------------|
...(a)way.
Guitar 3
Eb|----------13------------15--15/17-15-13-12-13-12h13p12-13-12--------12--|
Bb|-13-12-13------13-12-13------------------------------------15-13-15-----|
Gb|------------------------------------------------------------------------|
Db|------------------------------------------------------------------------|
Ab|------------------------------------------------------------------------|
Eb|------------------------------------------------------------------------|

Guitar 4
Eb|-----------------------12--12/13-12----12------------------------------|
Bb|----------15------------------------15----15-13-15-13-12----12---------|
Gb|-14-12-12-----14-12-12-----------------------------------14----14------|
Db|-----------------------------------------------------------------------|
Ab|-----------------------------------------------------------------------|
Eb|-----------------------------------------------------------------------|

Guitar 3--Play with Riff B&B1 (1x) and guitars 4&7 (1x)
Eb|--12----------191919191919191919191919---|
Bb|-----------------------------------------|
Gb|-----------------------------------------|
Db|-----------------------------------------|
Ab|-----------------------------------------|
Eb|-----------------------------------------|

Guitars 5&6 Riff B&B1 (Divided)
Eb|--171717171717171717171717171717171717---|
Bb|--101010101010101010101010101010101010---|
Gb|-----------------------------------------|
Db|-----------------------------------------|
Ab|-----------------------------------------|
Eb|-----------------------------------------|

Guitar 4&7 (Divided)
Eb|--------------121212121212121212121212---|
Bb|--------------121212121212121212121212---|
Gb|-14141414--14----------------------------|
Db|-----------------------------------------|
Ab|-----------------------------------------|
Eb|-----------------------------------------|

Guitars 3,4,7 with Guitars 5&6 w/Riff B&B1 (7x)

Guitar 3
Eb|-19-20-19-17-19-17-15-17-15-13-15-13-12-13-12----12---------------------|
Bb|----------------------------------------------15----15-13-15-13-12-13-12|
Gb|------------------------------------------------------------------------|
Db|------------------------------------------------------------------------|
Ab|------------------------------------------------------------------------|
Eb|------------------------------------------------------------------------|

Guitar 7
Eb|-12-13-12----12---------------------------------------------------------|
Bb|----------15----15-13-15-13-12-13-12----12------------------------------|
Gb|-------------------------------------14----14-12-14-12----12------------|
Db|-------------------------------------------------------15----15-14-15-14|
Ab|------------------------------------------------------------------------|
Eb|------------------------------------------------------------------------|

Guitar 4
Eb|------------------------------------------------------------------------|
Bb|-12-13-12----12---------------------------------------------------------|
Gb|----------14----14-12-14-12-10-12-10-9-10-9----9------------------------|
Db|--------------------------------------------12---12-10-12-10-9-10-9----9|
Ab|--------------------------------------------------------------------12--|
Eb|------------------------------------------------------------------------|

Guitar 3
Eb|-------------------12-13-15-13-12----------12-13-15-13-12----------12-13|
Bb|----12----12-13-15----------------15-13-15----------------15-13-15------|
Gb|-14----14---------------------------------------------------------------|
Db|------------------------------------------------------------------------|
Ab|------------------------------------------------------------------------|
Eb|------------------------------------------------------------------------|

Guitar 7
Eb|------------------------------------------------------------------------|
Bb|-------------------12-13-15-13-12----------12-13-15-13-12----------12-13|
Gb|-----------12--14-----------------14-13-14----------------14-13-14------|
Db|-12-14-15---------------------------------------------------------------|
Ab|------------------------------------------------------------------------|
Eb|------------------------------------------------------------------------|

Guitar 4
Eb|------------------------------------------------------------------------|
Bb|------------------------------------------------------------------------|
Gb|-------------------9-10-12-10-9------------9-10-12-10-9------------9-10-|
Db|-----------9-10-12---------------12-10-12-----------------12-10-12------|
Ab|-------12---------------------------------------------------------------|
Eb|------------------------------------------------------------------------|

Guitar 3
Eb|-15-13-12----------12-13-15-13-12----------12-13-15-13-12----------12-13|
Bb|----------15-13-15----------------15-13-15----------------15-13-15------|
Gb|------------------------------------------------------------------------|
Db|------------------------------------------------------------------------|
Ab|------------------------------------------------------------------------|
Eb|------------------------------------------------------------------------|

Guitar 7
Eb|------------------------------------------------------------------------|
Bb|-15-13-12----------12-13-15-13-12----------12-13-15-13-12----------12-13|
Gb|----------14-13-14----------------14-13-14----------------14-13-14------|
Db|------------------------------------------------------------------------|
Ab|------------------------------------------------------------------------|
Eb|------------------------------------------------------------------------|

Guitar 4
eb|------------------------------------------------------------------------|
Bb|------------------------------------------------------------------------|
Gb|-12-10-9------------9-10-12-10-9------------9-10-12-10-9------------9-10|
Db|----------12-10-12----------------12-10-12----------------12-10-12------|
Ab|------------------------------------------------------------------------|
Eb|------------------------------------------------------------------------|

Guitar 3
eb|-15-13-12----------12-13-15-13-12----------12-13-15-13-12----------12-13|
Bb|----------15-13-15----------------15-13-15----------------15-13-15------|
Gb|------------------------------------------------------------------------|
Db|------------------------------------------------------------------------|
Ab|------------------------------------------------------------------------|
Eb|------------------------------------------------------------------------|

Guitar 7
eb|------------------------------------------------------------------------|
Bb|-15-13-12----------12-13-15-13-12----------12-13-15-13-12----------12-13|
Gb|----------14-13-14----------------14-13-14----------------14-13-14------|
Db|------------------------------------------------------------------------|
Ab|------------------------------------------------------------------------|
Eb|------------------------------------------------------------------------|

Guitar 4
eb|------------------------------------------------------------------------|
Bb|------------------------------------------------------------------------|
Gb|-12-10-9------------9-10-12-10-9------------9-10-12-10-9------------9-10|
Db|----------12-10-12----------------12-10-12----------------12-10-12------|
Ab|------------------------------------------------------------------------|
Eb|------------------------------------------------------------------------|


Guitar 3 
eb|-15-13-12----------12-13-15-13-12----------12-13-15-13-12---------------|
Bb|----------15-13-15----------------15-13-15----------------15--13--------|
Gb|------------------------------------------------------------------------|
Db|------------------------------------------------------------------------|
Ab|------------------------------------------------------------------------|
Eb|------------------------------------------------------------------------|

Guitar 7
eb|------------------------------------------------------------------------|
Bb|-15-13-12----------12-13-15-13-12----------12-13-15-13-12---------------|
Gb|----------14-13-14----------------14-13-14----------------14--14--------|
Db|------------------------------------------------------------------------|
Ab|------------------------------------------------------------------------|
Eb|------------------------------------------------------------------------|

Guitar 4 (plus 5&6 divided)
eb|-------------------------------------------------------------*17--------|
Bb|-------------------------------------------------------------*10--------|
Gb|-12-10-9------------9-10-12-10-9------------9-10-12-10-9----------------|
Db|----------12-10-12----------------12-10-12----------------12--10--------|
Ab|------------------------------------------------------------------------|
Eb|------------------------------------------------------------------------|

End Solo

Guitar 2 Rythm Fig. 3 
eb|--------------------------------------------------------------------|
Bb|-10---10-10---------------------------------------------------------|
Gb|-9----9--9----------------------------------------------------------|
Db|-7----7--7--0--3----3--3--0--10----10--10--0--2---------------------|(2x)
Ab|-7----7--7--0--3----3--3--0--10----10--10--0--2-2-2-2-2-2-3-2-0-----|
Eb|-7----7--7--0--3----3--3--0--10----10--10--0--2-----------------5-0-|
The most lonliest day of my life

Guitar 2 
eb|----------------------------------------------------|
Bb|-10--10-10------------------------------------------|
Gb|-9---9--9-------------------------------------------|
Db|-7---7--7--0--3---3--3--0--10---10--10--0--2---2-2-0| (1.5x)
Ab|-7---7--7--0--3---3--3--0--10---10--10--0--2---2-2-0|
Db|-7---7--7--0--3---3--3--0--10---10--10--0--2---2-2-0|
THE MOST LONLIEST DAY OF MY LYYYYYYYYYYYYYYFE AHHHH
Guitar 2
eb|------------------------------|
Bb|------------------------------|
Gb|------------------------------|
Db|-10---10--10--0--2---2-2-0-7--| (1x)
Ab|-10---10--10--0--2---2-2-0-7--|
Db|-10---10--10--0--2---2-2-0-7--|
Ahhhhhhhhhhh.

Guitar 1
eb|------------------------------------------------------|
Bb|-------1-----------0------------1------------0--------|
Gb|-----2---2-------2---2--------0---0--------1---1------|
Db|---2-------0---0-------2----2-------0----0-------0----|(2x)
Ab|-0------------------------3---------------------------|
Eb|-------------1-------------------------0--------------|
Such a lonely day and its mine, Its a day that Im glad I survived.

Guitar 1 play with 3,4,5.(1,4,5 fade to end)     Guitar 3 (harmonic)
eb|-----------------------------|               eb|--5-----|
Bb|--------------10-------------|               Bb|--------|
Gb|-10-----9--------------------|               Gb|--------|
Db|-x---7-----7-----------------|               Db|--------|
Ab|-0---------------------------|               Ab|--------|
Eb|-----------------------------|               Eb|--------|

Guitar 4 (dist.)(w/slide)    Guitar 5 (dist.)(w/slide)
*Steady Gliss *Vol Swell     *Steady Gliss *Vol Swell
eb|---------------|          eb|---------------|
Bb|--20//////17---|          Bb|-16//////14----| 
Gb|---------------|          Gb|---------------|
Db|---------------|          Db|---------------|
Ab|---------------|          Ab|---------------|
Eb|---------------|          Eb|---------------|

Que te parecio? Calificalo con estrellas!!

Rating: 6.4/10 (16 votos)

Este fichero es trabajo propio de su transcriptor y representa su interpretación personal de la canción. El material contenido en esta página es para exclusivo uso privado, por lo que se prohibe su reproducción o retransmisión, así como su uso para fines comerciales.


Comentario de matix285
http://tabs.ultimate-guitar.com/s/system_of_a_down/lonely_day_ver5_tab.htm esa es la pag original
Deja tus comentarios:

Letras de Sistem Of A Down
Letras de canciones | Musica Independiente