Enviado por:
Anonimo

Los Bunkers, Nada Me Importa

Imprimir
Esta versión es más correcta del tema y también le puse
el punteo en el puente o como quieran llamarle.

En la tablatura del intro lo que sale es un arpegio,
lo mismo cuando salen las notas arriba de la tab.

En los versos y en el coro ustedes les ponen el detalle
del Dsus4 con el D y los arpegios que son muy importantes en la canción.



Intro:

                 D     Dsus4
E|-5----7---7------2-3-2-2-||     Al principio es como la posición
B|--6----8---8------3---3--||     de un D en el 5º espacio que es
G|---5----7------2------ --||x 2  equivalente a un F y después un G(Aquí
D|-------------------------||     en la tab.les estoy poniendo el arpegio que
A|-------------------------||     se debe hacer con los acordes)
e|-------------------------||



D
Azul se vuelve la ciudad
                      G
Letargo y suave sin tocar
G         D
Nada me importa.


D
Fina sonrisa de metal
                     G
Oscura niebla de cristal
Em         D
Nada me importa


Coro:


Bm         A
Y cuando duermas pensarás
Gm            D     Dsus4  D
Que todo se vuelve hacia atrás
Sim       La
Y cuando vuelvas a soñar
F#                     G    A - G - F#m - E
La historia no tiene final.


D
La espesa estela volverá
                      G
Encanto suave y sin final
Em         D
Nada me importa.



puente: D - C - A# - C


E|-7-7-7-5--5-5-5-3-2-3-5-|-6-6-6-5--5-5-5-3-2-3-5-|
B|------------------------|------------------------|


E|-6--6-6-5--5-5-5-3-2-3-5|-6-6-6-5-6-8-8-8-6-5--2-|
B|-----------------------------------------------3-|
G|-----------------------------------------------4-|
D|-----------------------------------------------4-|
A|-----------------------------------------------2-|
e|-----------------------------------------------2-|


coro:

Bm         A
Y cuando duermas pensarás
Gm           D               Bm
Que todo se vuelve hacia atrás
          A
Y cuando vuelvas a soñar
F#                      G     A - G - F#m - E - A - G - F#m - E
La historia no tiene final


D
Azul se vuelve la ciudad
                      G
Letargo y suave sin tocar

Em          D
Nada me importa


            Nada me importa
E|-5----7---7------2-3-2-0-2-||
B|--6----8---8------3--------||
G|---5----7------2-----------||
D|---------------------------||
A|---------------------------||
e|---------------------------||

            Nada me importa
E|-5----7---7------2-3-2-0-2-||
B|--6----8---8------3--------||
G|---5----7------2-----------||
D|---------------------------||
A|---------------------------||
e|---------------------------||

                  D
        Nada me importa.
E|-5----7---7-----2--||
B|--6----8---8----3--||
G|---5----7-------2--||
D|----------------0--||
A|----------------0--||
e|----------------0--||   Fin.


Bueno, aquí esta el tema que está 100

Fuente original: LaCuerda
Colaborador original: Gonzalo Segovia Diaz [[email protected]]
Aviso: Este fichero es trabajo propio de su transcriptor y representa su interpretación personal de la canción. El material contenido en esta página es para exclusivo uso privado, por lo que se prohibe su reproducción o retransmisión, así como su uso para fines comerciales.

Califica esta canción


Comentarios en Facebook