Enviado por:
Anonimo

Los Bunkers, Fantasias Animadas De Ayer Y Hoy

Imprimir
Bueno, aqui esta el acorde de para bajo de esta cancion,
que para mi gusto es bastante buena. Esto seria más o
menos así:

Intro
(solo de guitarra)
G---------------------------------------------
D---------------------------------------------
A------------776655443322110----------
E---------------------------------------------

1er Verso
G-----------------------------------------------------------------------------
D-----------------------------------------------------------------------------
A-------------3-3-5-5-3-2-0-------------3-3-5-5-3-2-0------------3-3-5-5-3-2-0
E-3-3-0-1-1-0---------------3-3-0-1-1-0---------------3-3-0-1-1-0-------------

G----------------------------------------------------
D----------------------------------------------------
A-------------3-3-5-5-3-2-0-------------3-3-5-5-3-2-0  (Aca hay un cambio)
E-3-3-0-1-1-0---------------3-3-0-1-1-0--------------

G------------------------------------------------------
D-------------------0-3-4-5-5-5-3-3-3-3-2-2-0----------
A-------------3-3-5---------------------------3-3-2-0--
E-3-3-0-1-1-0------------------------------------------

G--------------------------------------------------------------
D-------------------0-3-4-5-5-5-3-3-3-3-2-2-0------------------
A-------------3-3-5---------------------------3-3-2-5-5-5-5----
E-3-3-0-1-1-0--------------------------------------------------

(BATERIA)

2do Verso

G-----------------------------------------------------------------------------
D-----------------------------------------------------------------------------
A-------------3-3-5-5-3-2-0-------------3-3-5-5-3-2-0------------3-3-5-5-3-2-0
E-3-3-0-1-1-0---------------3-3-0-1-1-0---------------3-3-0-1-1-0-------------

G------------------------------------------------------
D-------------------0-3-4-5-5-5-3-3-3-3-2-2-0----------
A-------------3-3-5---------------------------3-3-2-0--
E-3-3-0-1-1-0------------------------------------------

G------------------------------------------------------------------------------
D-------------------0-3-4-5-5-5-3-3-3-3-2-2-0----------------------------------
A-------------3-3-5---------------------------3-3-2-5-5-5-5---5-5-5-5---5-5-5-5
E-3-3-0-1-1-0------------------------------------------------------------------

Coro

NO PARA NO PARA NO PARA NO...........(x3)

G------------------------------------------------------------------------------
D-------------9-9-9-------7-7-7-------9-9-9-------7-7-7-------9-9-9-------7-7-7
A-5-5-5-7-7-7-------5-5-5-------7-7-7-------5-5-5-------7-7-7-------5-5-5------
E------------------------------------------------------------------------------

PAPARA NO OOOOOO NO OOOOO

G-5-5-5-5-5-5-5-5-4-4-4-4-4-4-4-4-5-5-5-5-5-5-5-5-5-4-3-2-
D---------------------------------------------------------
A---------------------------------------------------------
E---------------------------------------------------------

DESDE AQUÍ SE REPITE LO MISMO DEL 2do VERSO

G-----------------------------------------------------------------------------
D-----------------------------------------------------------------------------
A-------------3-3-5-5-3-2-0-------------3-3-5-5-3-2-0------------3-3-5-5-3-2-0
E-3-3-0-1-1-0---------------3-3-0-1-1-0---------------3-3-0-1-1-0-------------

G------------------------------------------------------
D-------------------0-3-4-5-5-5-3-3-3-3-2-2-0----------
A-------------3-3-5---------------------------3-3-2-0--
E-3-3-0-1-1-0------------------------------------------

G------------------------------------------------------------------------------
D-------------------0-3-4-5-5-5-3-3-3-3-2-2-0----------------------------------
A-------------3-3-5---------------------------3-3-2-5-5-5-5---5-5-5-5---5-5-5-5
E-3-3-0-1-1-0------------------------------------------------------------------

Coro

NO PARA NO PARA NO PARA NO...........(x3)

G------------------------------------------------------------------------------
D-------------9-9-9-------7-7-7-------9-9-9-------7-7-7-------9-9-9-------7-7-7
A-5-5-5-7-7-7-------5-5-5-------7-7-7-------5-5-5-------7-7-7-------5-5-5------
E------------------------------------------------------------------------------

(EL FINAL VARIA UN POCO)

G------------------------------------------------------------------
D------------------------------------------------------------------
A-3-3-3-3-3-3-3-3-2-2-2-2-2-2-2-2-3-3-3-3-3-3-3-3-3-2-1-0----------
E---------------------------------------------------------4-3-2-1-3


Y ESO ES TODO, = LA CANCIÓN NO ES COMPLICADA, ASI QUE SI ESTAN RECIEN APRENDIENDO
PUEDEN PROBAR CON ESTA.....DISFRUTENLA, NOS VEMOS EN OTRA OCASION. CHAUS

Fuente original: LaCuerda
Colaborador original: Dokho [[email protected]]
Aviso: Este fichero es trabajo propio de su transcriptor y representa su interpretación personal de la canción. El material contenido en esta página es para exclusivo uso privado, por lo que se prohibe su reproducción o retransmisión, así como su uso para fines comerciales.

Califica esta canción


Comentarios en Facebook