Enviado por:
Anonimo

Los Bunkers, Entre Mis Brazos

Imprimir
Esta canción es muy bacán de Los Bunkers y no la tocan mucho en la radio,
pero igual, sé que aparte de mí, a alguien más le tendrá que gustar, supongo.
Bueno este es el bajo que saqué en una versión en vivo de esta canción, hay
que tomar en cuenta que el bajo en ciertas partes se repite más de una vez cuando
sólo coloco 2 veces cierta nota, pero en fin, el bajo debe tocarse con la 
pasión propia y no tan igual como la canción misma creo yo. Aunque este es muy 
parecido al original. Recuerden que esta es una versión en vivo, 
así que traten de acomodarse si no entienden mucho el bajo. 
En todo caso son muy parecidos.


BAJO


Intro:

-------------------------------------------------
-------------------------------------------------
----------3-2------------3-2---1-1-0-0----------- 		 
-5-5-6-0--------5-5-6-0------------- 3-0-1-1-0---
Lam  Sib  Mi7  Lam  Sib  Mi7   Sib           Mi7   Lam




siento que en
las noches
soy un          ciego en busca de un cielo
----------------------------------------------
----------------------------------------------
----------------1-0---------------------------
-5-5-5-5-5-5-5-5----3-1-0-0-4-4---------------

marcho lentamente
por los           sueños, pero no te veo
----------------------------------------------
----------------------------------------------
-------------------1-0---------------------------
-5-5-5-5-5-5-5-5-------3-1-0-0-4-4---------------


la piel de la 
     verdad               se estremece cuando oye tu voz 
-----------------------------------------------------------------------------------
-0-2-3-0-----2-3------2-3------3-2-------------------------------------------------
---------4-------4-3------3-2------3-2--3--------------------------7---------------
-----------------------------------------5-5-3-5-3-5---5-5-7-7-8-8-----------------

tu imagen 
seguirá                   pincelada con dedicación   por Dios, oh no    
-----------------------------------------------------------------------------------
-0-2-3-0-----2-3------2-3------3-2-------------------------------------------------
---------4-------4-3------3-2------3-2--3--------------------------------------7---
------------------------------------------5--0-------6-6-5-5-3-0-1-1-0-0-4-4-7-7---






CORO:


tu vida   mi vida   no se pondrán de acuerdo
---------------------------------------------------
---------------------------------------------------
------------------------4-4-------4-4--------------
-6-6-6------0-0-0----2-2-------4-4-----------------


sabes que       no podrás   dormir entre mis brazos otra vez
----------------------------------------------------------2-2-4-4---	
----------------------------------------------2-2-3-3-5-5-----------
-------2----------------1-4-------2-2-4-4-5-5-----------------------
-0-2-3--------------2-4---------------------------------------------



tu vida   mi vida   no se pondrán de acuerdo
---------------------------------------------------
---------------------------------------------------
------------------------4-4-------4-4--------------
-6-6-6------0-0-0----2-2-------4-4-----------------


cuanto nos        pueden defraudar los sueños que tuvimos           
----------------------------------------------------------2-2-4-4--
----------------------------------------------2-2-3-3-5-5----------
-------2----------------1-4-------2-2-4-4-5-5----------------------
-0-2-3--------------2-4--------------------------------------------


ayer
-------------------------------	¦la primera vez que 
------------------------------- ¦se canta el coro
-----------------------------7- ¦y se dice ayer se toca este tab, 
-6-6-5-5-3-0-1-1-0-0-4-4-7-7--- ¦ya que la segunda vez
				¦se pasa a LA menor inmediatamente con 
su bajo correspondiente

Fuente original: LaCuerda
Colaborador original: Carlos Arriagada Sepúlveda [[email protected]]
Aviso: Este fichero es trabajo propio de su transcriptor y representa su interpretación personal de la canción. El material contenido en esta página es para exclusivo uso privado, por lo que se prohibe su reproducción o retransmisión, así como su uso para fines comerciales.

Califica esta canción


Comentarios en Facebook