Enviado por:
glenncho05

Camila, Coleccionista De Canciones

INTRO:
  Am7         Em       F
e|---------------------------| X2
B|--2/4--4/6-6-1--2/4-4------|
G|--3-------------------1/3--|
D|--4------------------------|
A|---------------------------|
E|---------------------------|

   C                          Am
e|----------------------------------------|
B|--------2-1------------------------2h1--|
G|----------------------------------------|
D|----4-------------------------3---------|
A|--3-------------------------1-----------|
E|----------------------------------------|
  Tu...coleccionista de canciones,

            F                                      G
e|----------------------------------------------3h4--|
B|-------------2------------------------------4------|
G|------------4------------------------------6-------|
D|-----------3------------------------------5--------|
A|----------4------------------------------6---------|
E|---------2------------------------------4----------|
  Dame razones...                   para vivir.

   C                                Am                    F
e|------------------------------------------------------|
B|-----2-1----------------------2-----------------------|
G|-----------------------------3---------------------3--|
D|---4------------------------3---------------------4---|
A|--3------------------------1---------------------4----|
E|------------------------------------------------2-----|
  Tu...    la dueña de mis sueños, quédate en ellos,
          
      G             E                  Am
e|--------------------------------------|
B|-----------------6--------3--------2--|
G|---------------6---------3--------3---|
D|-------------6----------3--------3----|
A|--------------------------------1-----|
E|-----------4----------1---------------|
   Y hazme sentir.             y así...

           Dm         E                         Am 
e|--------1------------2------------------------|
B|--2--4-----------4-------------------------2--|
G|-------------3-----------2----------------3---|
D|---------1--------------1----------------3----|
A|----------------------------------------1-----|
E|-----------------------1----------------------|
   En tu misterio poder...        descubrir.

                Dm        E
e|--------1------------2----------|
B|--2--4-----------4--------------|
G|--------------3--------------2--|
D|----------1----------------1----|
A|--------------------------------|
E|-------------------------1------|
   El sentimiento eterno.........


CORO:
F                       C
Tú, con la luna en la cabeza,
                     F
El lugar en donde empieza,
                    Dm            G
El motivo y la ilusión de mi existir...

          C                            Am
Tan solo tú, solamente quiero que seas tú,
                        F             Dm
Mi locura, mi tranquilidad y mi delirio,
         F         G
Mi compás, y mi camino.
      C                            Am
Solo tú, solamente quiero que seas tú,                       
  F
Pongo en tus manos mi destino
        Dm           F
Porque vivo, para estar...
               Dm                     G              Am7
Siempre... [Siempre] siempre,... [Siempre] contigo amor.
e|---------------------------| 
B|--2/4--4/6-6-1--2/4-4------|
G|--3-------------------1/3--|
D|--4------------------------|
A|---------------------------|
E|---------------------------|



C                    Am
Tu coleccionista de canciones,
F             G
Mil emociones son para ti.
C                        Am
Tú lo que soñé en mi vida entera,
    F                   G     E
Quédate en ella y hazme sentir.

   Am             Dm           E             Am
e|--------1------------2--------------------|
B|--2--4-----------4---------------------2--|
G|-------------3-----------2------------3---|
D|---------1--------------1------------3----|
A|------------------------------------1-----|
E|-----------------------1------------------|
   Y así, ir transformando la magia de ti,
         
               Dm          E
e|--------1------------2-------|
B|--2--4-----------4-----------|
G|-------------3-----------2---|
D|---------1--------------1----|
A|-----------------------------|
E|-----------------------1-----|
   En un respiro del alma.



CORO...



G#                                 A#
Ya no queda mas espacio en mi interior,
                                G#
Has llenado con tu luz cada rincón,
                                      F        G
Es por ti que con el tiempo mi alma siente, diferente...
F   G  C
Solo...Tu
                          Am
Solamente quiero que seas tú,
                        F             Dm
Mi locura, mi tranquilidad y mi delirio,
        F          G
Mi compás, y mi camino.
      C                            Am
Solo tú, solamente quiero que seas tú,                       
  F
Pongo en tus manos mi destino,
        Dm           F
Porque vivo, para estar...
               Dm                     G              Am7
Siempre,... (Siempre) siempre,... (Siempre) contigo amor



e|--9-11-13---9-11----| x2
B|---------13-----11--|
G|--------------------|
D|--------------------|
A|--------------------|
E|--------------------|


C Am F Dm G

C Am F Dm F   Dm   G
Aviso: Este fichero es trabajo propio de su transcriptor y representa su interpretación personal de la canción. El material contenido en esta página es para exclusivo uso privado, por lo que se prohibe su reproducción o retransmisión, así como su uso para fines comerciales.

Califica esta canción


Comentarios en Facebook