Enviado por:
Anonimo

Los Bunkers, Cancion De Lejos

Imprimir
gozenlo...


  1er  coro

      -----------------|----------------|----------------------
      -----------------|----------------|----------------------
      -----------------|----------------|----------------------
      -----------2-----|----------------|--2-2-3-2-5-5-3-2-----
      ---3-3--5--------|---0-0-2-3------|----------------------
      -----------------|----------------|----------------------


      -----------------|----------------|------------------------
      -----------------|----------------|------------------------
      -----------------|----------------|------------------------
      -----------2-----|----------------|--2-2-3-2-5-2-6-2-------
      ---3-3--5--------|---0-0-2-3------|------------------------
      -----------------|----------------|------------------------

      ya no, no me esperaran...




       -----------------|------------------|-------------------------
       -----------------|------------------|-------------------------
       -----------------|------------------|-------------------------
       -----------------|------------------|-------------------------
       ---3--5--7--5-3--|---2--3--55--3-2--|--0----2----3------------
       -----------------|------------------|-------------------------

      de su soledad...


    2do  coro

       -----------------|----------------|----------------------
       -----------------|----------------|----------------------
       -----------------|----------------|----------------------
       -----------2-----|----------------|--2-2-3-2-5-5-3-2-----
       ---3-3--5--------|---0-0-2-3------|----------------------
       -----------------|----------------|----------------------


       -----------------|----------------|------------------------
       -----------------|----------------|------------------------
       -----------------|----------------|------------------------
       -----------2-----|----------------|--2-2-3-2-5-2-6-2-------
       ---3-3--5--------|---0-0-2-3------|------------------------
       -----------------|----------------|------------------------



       -----------------|-----------------|-------------------------
       -----------------|-----------------|-------------------------
       -----------------|-----------------|-------------------------
       -----------------|-----------------|-------------------------
       ---3--5--7--5-3--|---2--3--5--3-2--|--0----2----3-----2-2----
       -----------------|-----------------|-------------------------


       no creas que los...

     3er  coro

       -----------------|----------------|----------------------
       -----------------|----------------|----------------------
       -----------------|----------------|----------------------
       -----------2-----|----------------|--2-2-3-2-5-5-3-2-----
       ---3-3--5--------|---0-0-2-3------|----------------------
       -----------------|----------------|----------------------


       -----------------|----------------|------------------------
       -----------------|----------------|------------------------
       -----------------|----------------|------------------------
       -----------2-----|----------------|--2-2-3-2-5-2-6-2-------
       ---3-3--5--------|---0-0-2-3------|------------------------
       -----------------|----------------|------------------------




       -----------------|------------------|-------------------------
       -----------------|------------------|-------------------------
       -----------------|------------------|-------------------------
       -----------------|------------------|-------------------------
       ---3--5--7--5-3--|---2--3--55--3-2--|--0----2----3------------
       -----------------|------------------|-------------------------




ojala les guste lo que saque con tanto esfuerzo y dedicacion de la mejor 
banda de chilitooooooo

P.D.: NECESITO UN BATERISTA PARA FORMAR UNA BANDA DEL MISMO 
ESTILO.  INTERESADOS ESCRIBIR AL MAIL 
 [email protected] 

pd2: si el que lee el tab es guitarrista y conoce un batero,
diganle que se contacte al mail o al 7717632 y preguntar 
por matias... grande LOS BUNKERS!!!!!!!!!!!!!!!!!!!

Fuente original: LaCuerda
Colaborador original: Matias Egaña Lucero [[email protected]]
Aviso: Este fichero es trabajo propio de su transcriptor y representa su interpretación personal de la canción. El material contenido en esta página es para exclusivo uso privado, por lo que se prohibe su reproducción o retransmisión, así como su uso para fines comerciales.

Califica esta canción


Comentarios en Facebook