Enviado por:
Anonimo

Los Bunkers, Cancion De Lejos

Imprimir
G||---------------------------|--------------------------|
D||*--------0--2--------0--2--|--------------------------|
A||*--3--3--------3--3--------|--1--1--3--5--1--1--3--5--|
E||---------------------------|--------------------------|


                                                        
--------------------------|---------------------------||
--1--1--3--5--1--1--3--5--|--------------------------*||
--------------------------|--------0--2--------0--2--*||
--------------------------|--3--3--------3--3---------||


    Aquí empieza                                              
--------------------------|--------------------------|
--------0--2--------0--2--|--------------------------|
--3--3--------3--3--------|--1--1--3--5--1--1--3--5--|
--------------------------|--------------------------|


                                                      
--------------------------|--------------------------|
--1--1--3--5--1--1--3--5--|--------------------------|
--------------------------|--------0--2--------0--2--|
--------------------------|--3--3--------3--3--------|


                                                      
--------------------------|--------------------------|
--------0--2--------0--2--|--------------------------|
--3--3--------3--3--------|--1--1--3--5--1--1--3--5--|
--------------------------|--------------------------|


                                                      
--------------------------|--------------------------|
--1--1--3--5--1--1--3--5--|--------------------------|
--------------------------|--------0--2--------0--2--|
--------------------------|--3--3--------3--3--------|


       Coro                                               
--------------------------|--------------0--0--------|
--------0--2--------------|--2--2--3--2--------3--2--|
--3--3--------0--0--2--3--|--------------------------|
--------------------------|--------------------------|


                                                      
--------------------------|--------------0--0--------|
--------0--2--------------|--2--2--3--2--------3--2--|
--3--3--------0--0--2--3--|--------------------------|
--------------------------|--------------------------|


Ya no...                                                      
--------------------------|--------------------------|
--------------------------|--------------------------|
--0--0--0--0--0--0--0--0--|--------------------------|
--------------------------|--4--4--4--4--4--4--4--4--|


                                                   (Esta parte está media rara)
--------------------------|--------------------------|-----------------------|
--0--0--0--0--0--0--0--0--|--------------------------|-----------------------|
--------------------------|--4--4--4--4--4--4--4--4--|--3----5----7----5--3--|
--------------------------|--------------------------|-----------------------|


                                                                  
------------------------|---------------------|------------------|
---------------------2--|---------------------|------------------|
--2----3----5--5--3-----|--0----2----3--------|------------------|
------------------------|---------------------|------------------|


                                         Mi amor está borracho..                         
-------------------|------------------|--------------------------|
-------------------|------------------|--------0--2--------0--2--|
----------0--------|------------------|--3--3--------3--3--------|
-------------------|------------------|--------------------------|


                                                      
--------------------------|--------------------------|
--------------------------|--1--1--3--5--1--1--3--5--|
--1--1--3--5--1--1--3--5--|--------------------------|
--------------------------|--------------------------|


                                                      
--------------------------|--------------------------|
--------------------------|--------0--2--------0--2--|
--------0--2--------0--2--|--3--3--------3--3--------|
--3--3--------3--3--------|--------------------------|


                                                      
--------------------------|--------------------------|
--------------------------|--1--1--3--5--1--1--3--5--|
--1--1--3--5--1--1--3--5--|--------------------------|
--------------------------|--------------------------|


   Si tú... etc                                                   
--------------------------|--------------------------|
--------------------------|--------0--2--------------|
--------0--2--------0--2--|--3--3--------0--0--2--3--|
--3--3--------3--3--------|--------------------------|


                                                      
--------------0--0--------|--------------------------|
--2--2--3--2--------3--2--|--------0--2--------------|
--------------------------|--3--3--------0--0--2--3--|
--------------------------|--------------------------|


                                                      
--------------0--0--------|--------------------------|
--2--2--3--2--------3--2--|--------------------------|
--------------------------|--0--0--0--0--0--0--0--0--|
--------------------------|--------------------------|


                                                      
--------------------------|--------------------------|
--------------------------|--0--0--0--0--0--0--0--0--|
--------------------------|--------------------------|
--4--4--4--4--4--4--4--4--|--------------------------|

                             
                            ( la parte rara de nuevo)                       
--------------------------|-----------------------|------------------------|
--------------------------|-----------------------|---------------------2--|
--4--4--4--4--4--4--4--4--|--3----5----7----5--3--|--2----3----5--5--3-----|
--------------------------|-----------------------|------------------------|


                                                                                
---------------------|------------------|-------------------|------------------|
---------------------|------------------|-------------------|------------------|
--0----2----3--------|------------------|----------0--------|------------------|
---------------------|------------------|-------------------|------------------|


  las sombras de van cayendo, sobre concepción despierto               
----------------------|----------------------|----------------------|
----------------------|----------------------|----------------------|
--0----0----0----0----|----------------------|----------------------|
----------------------|--0----0----0----0----|--3----3----3----3----|


                                                                     
----------------------|----------------------|----------------------|
----------------------|----------------------|----------------------|
--5----5----5----5----|--0----0----0----0----|----------------------|
----------------------|----------------------|--0----0----0----0----|


                                                                  
----------------------|----------------------|-------------------|
----------------------|----------------------|-------------------|
--0----0----0----0----|--5----5----5----5----|--0----------------|
----------------------|----------------------|-------------------|

                      El coro de nuevo
                                                                           
------------------||---------------------------|--------------------------|
------------------||*--------0--2--------0--2--|--------------------------|
------------------||*--3--3--------3--3--------|--1--1--3--5--1--1--3--5--|
------------------||---------------------------|--------------------------|


                                                        
--------------------------|---------------------------||
--1--1--3--5--1--1--3--5--|--------------------------*||
--------------------------|--------0--2--------0--2--*||
--------------------------|--3--3--------3--3---------||


                                                      
--------------------------|--------------0--0--------|
--------0--2--------------|--2--2--3--2--------3--2--|
--3--3--------0--0--2--3--|--------------------------|
--------------------------|--------------------------|


                                                      
--------------------------|--------------0--0--------|
--------0--2--------------|--2--2--3--2--------3--2--|
--3--3--------0--0--2--3--|--------------------------|
--------------------------|--------------------------|


                                                      
--------------------------|--------------------------|
--------------------------|--------------------------|
--0--0--0--0--0--0--0--0--|--------------------------|
--------------------------|--4--4--4--4--4--4--4--4--|


                                                                              
--------------------------|--------------------------|-----------------------|
--0--0--0--0--0--0--0--0--|--------------------------|------------2----------|
--------------------------|--4--4--4--4--4--4--4--4--|--3----5---------5--3--|
--------------------------|--------------------------|-----------------------|


                                                                 
-----------------------|---------------------|------------------|
-----------------------|---------------------|------------------|
--2----3----5----3--2--|--0----2----3--------|------------------|
-----------------------|---------------------|------------------|


                                                                        
-----------------------|------------------||---------------------------|
-----------------------|------------------||*--------0--2--------0--2--|
--4--2--0--2--0--------|------------------||*--3--3--------3--3--------|
-----------------------|------------------||---------------------------|


                                                      
--------------------------|--------------------------|
--------------------------|--1--1--3--5--1--1--3--5--|
--1--1--3--5--1--1--3--5--|--------------------------|
--------------------------|--------------------------|

 Tres Veces
                           3x                                        
---------------------------||-------------------|------------------||
--------------------------*||-------------------|------------------||
--------0--2--------0--2--*||--3----------------|------------------||
--3--3--------3--3---------||-------------------|------------------||

Fuente original: LaCuerda
Colaborador original: Lord Vlhyts [[email protected]]
Aviso: Este fichero es trabajo propio de su transcriptor y representa su interpretación personal de la canción. El material contenido en esta página es para exclusivo uso privado, por lo que se prohibe su reproducción o retransmisión, así como su uso para fines comerciales.

Califica esta canción


Comentarios en Facebook