Acordes y tablaturas para guitarra

Acordes y Tablaturas
Usuario: Password:

Buscar:
Acordes y Tablaturas >> Letra A >> Acordes de Alejandro Arnaiz >> Mi Corazon Encantado
Tablatura de Mi Corazon Encantado, Alejandro Arnaiz

Mi Corazon Encantado

Alejandro Arnaiz






pongo dos versiones por que no se cual se escucha mejor
version1

Intro:

e|---?-?-?-?-----?-?------------?---------------------------------|
B|-----------------10---------------------------------------------|
G|--12-12---9-10-12---12-10-9-------9-9-------9-10-9--------------|
D|----------------------------12--------10-12--------12-10-9------|
A|----------------------------------------------------------------|
E|----------------------------------------------------------------|

-(En este los ultimos tres "10,9 y 12" se tocan rapido)
e|---?-?-?-?-----?-?------------?---------------------------------|
B|---------10-8---------------------------------------------------|
G|-----------------------9-10-------9---10-9----------------------|
D|---7--10------10----12------12-10---------12--------------------|
A|----------------------------------------------------------------|
E|----------------------------------------------------------------|

e|---?-?-?-?-----?-?------------?---------------------------------|
B|-----------------10---------------------------------------------|
G|--12-12---9-10-12---12-10-9-------9-9-------9-10-9--------------|
D|----------------------------12--------10-12--------12-10-9------|
A|----------------------------------------------------------------|
E|----------------------------------------------------------------|

e|---?-?-?-?-----?-?------------?---------------------------------|
B|---------10-8---------------------------------------------------|
G|-----------------------9-10-------------------------------------|
D|--7-7-10------10----12------12-10-12----12-10-9h10--------------|
A|----------------------------------------------------------------|
E|----------------------------------------------------------------|



version 2 (no esta completa)

Intro:

e|---?-?-?-?-----?-?------------?---------------------------------|
B|-----------------10---------------------------------------------|
G|--12-12---9-10-12---12-10-9-------9-9-------9-10-9--------------|
D|----------------------------12--------10-12--------12-10-9------|
A|----------------------------------------------------------------|
E|----------------------------------------------------------------|

-(En este los ultimos tres "10,9 y 12" se tocan rapido)
e|---?-?-?-?-----?-?------------?---------------------------------|
B|---------10-8---------------------------------------------------|
G|-----------------------9-10-------9---10-9----------------------|
D|---7--10------10----12------12-10---------12--------------------|
A|----------------------------------------------------------------|
E|----------------------------------------------------------------|

e|---?-?-?-?-----?-?------------?---------------------------------|
B|-----------------10---------------------------------------------|
G|--12-12---9-10-12---12-10-9-------9-9-------9-10-9--------------|
D|----------------------------12--------10-12--------12-10-9------|
A|----------------------------------------------------------------|
E|----------------------------------------------------------------|

e|---?-?-?-?-----?-?------------?---------------------------------|
B|---------10-8---------------------------------------------------|
G|-----------------------9-10-------------------------------------|
D|--7-7-10------10----12------12-10-12----12-10-9h10--------------|
A|----------------------------------------------------------------|
E|----------------------------------------------------------------|

sta va para mi gran amigo juan manuel de los angeles camarillo

Que te parecio? Calificalo con estrellas!!

Rating: 4.9/10 (29 votos)

Este fichero es trabajo propio de su transcriptor y representa su interpretación personal de la canción. El material contenido en esta página es para exclusivo uso privado, por lo que se prohibe su reproducción o retransmisión, así como su uso para fines comerciales.


Deja tus comentarios:
Letras de canciones | Musica Independiente