Enviado por: LamBuxXx
Agrandar Letra
Reducir Letra
Imprimir











Musica De Tv, Angel Beats Opening

Esta canción es Muy bonita, ya que todos los fans de esta serie la conoceMos y quereMos tocarla, acá les tengo la canción, 
es un poco coMplicada pro lo conceguiran, alguna pregunta agregenMe a Mi correo y Me hablan por allí que con gusto les responderé es [email protected] 

Gracias por su atención tengo 15 y es i priera cancion. Disfrutenla

as tarde subier un video para que tengan una idea de coMo debe sonar

priMera parte

-0------------0-------------0-------3-5---0--------
---3-1----------3-1-----------3-1-3---7-----3-1----
-------2-0----------2-0-------------------------0-2
------------------------------------------------0-2
---0------------0-------------0-------------0---0-0
---------0------------0----------------------------

(Parte un poco Mas rapida)

--------------------------------0-------------3
------------------------------------3---1-3-3--
-2-2-2-2-2-2-2------------------2-2-0-0-0------
-2-2-2-2-2-2-2--2-2-2-2-2-2-2---2-2-0-0-0------
-0-0-0-0-0-0-0--3-3-3-3-3-3-3------------------
----------------1-1-1-1-1-1-1------------------

(parte rapida)

-0-----------------------
---3-1-0-----------------
---------2-0-------------
-------------2-----------
-------------------------
-------------------------

(NorMal)

---------------0------------------------------------------
-----0-1-0-1-3---0----------0-1-0-1--------1--------------
---0----------------------0--------------0--0-------------
-2--------------------0-2--------------2------------------
------------------------0-----0---0-----------------------
-3-----3---3-3---3----------------------------------------

(Es un poco dificil pro lo lograran)

----------------------------------------------------------
---0-1-3-------0------------------------------------------
-2-------2-2-2-0-0-2-2----2-2-2-2-2-2---------------------
-3-------3-3-3-2-2-2-2----2-2-2-2-2-2---------------------
---------------2-2-0-0----0-0-0-0-0-0---------------------
-1---1---1-1-1--------------------------------------------

---------------0------------------------------------------
-----0-1-0-1-3---0----------0-1-0-1--------1--------------
---0----------------------0--------------0---0-------------
-2--------------------0-2--------------2------------------
------------------------0-----0---0-----------------------
-3-----3---3-3---3----------------------------------------

------------------0-----0-0-0-0-0-0-0-0-3-0-3-1---------------
---0-1-3----------0-1-3---0-0-0-0-0-0---1---1-----1-1-1-1-1-1-
-2-------2-2-2----0-------2-2-2-2-2-2-------------2-2-2-2-2-2-
-3-------3-3-3----2-------2-2-2-2-2-2-------------------------
------------------2-------0-0-0-0-0-0-------------------------
-1---1---1-1-1----0-------0-0-0-0-0-0---1---1---1-2-----------

-----------0-0-0----------2-0-----2-5-2-5-----------------
-3-----1-3-0-0-0-2-3-5--------3-3-3-7-3-7-----------------
-----2-----2-2-2------------------------------------------
-----------2-2-2--------------------0---0-----------------
---5-2-----0-0-0------------------0---0-------------------
-4---------0-0-0----------3---3---------------------------

-2-0-----2-5-2-5-7-5-5-5-5-5-5-5-5-5-5-5-5-5-5-5---------
-----3-3-3-7-3-7-8-7-7-7-7-7-7-7-7-7-7-7-7-7-7-7---------
---------------------7-7-7-7-7-7-7-7-7-7-7-7-7-7---------
-----------0---0-----0-0-0-0-0-0-0-0-0-0-0-0-0-0---------
---------0---0-------0-0-0-0-0-0-0-0-0-0-0-0-0-0---------
-3---3---------------0-0-0-0-0-0-0-0-0-0-0-0-0-0---------

-2-0---0-2-2----2-0---0-2-5----------------------------
-----3--------------3-----3-3--------------------------
----------------------0-2---2--------------------------
-------------------------------------------------------
-------2---2-------------------------------------------
-------------------------------------------------------


-2-0-----2-5-2-5
-----3-3-3-7-3-7-
-----------------
-----------0---0-
---------0---0---
-3---3-----------


-2-0-----2-5-2-5-7-5-5-5-5-5-5-5-5-9-5-5---5-5-5-5-5-5-5
-----3-3-3-7-3-7-8-7-7-7-7-7-7-7---------5-5-5-5-5-5-5-5
---------------------7-7-7-7-7-7---------5--------------
-----------0---0-----0-0-0-0-0-0------------------------
---------0---0-------0-0-0-0-0-0------------------------
-3---3---------------0-0-0-0-0-0------------------------

-2-0---------------2-0--------------2-0-----------------
-----3-0---------------3-0--------------3---0-----------
---------2-2-2-------------2-2-2----------2-------------
--------------------------------------------------------
---2-----------------2----------------2-----2-----------
-----3-3-2-------------3-3--------------3-2-------------
Aviso: Este fichero es trabajo propio de su transcriptor y representa su interpretación personal de la canción. El material contenido en esta página es para exclusivo uso privado, por lo que se prohibe su reproducción o retransmisión, así como su uso para fines comerciales.

Califica esta canción


Comentarios en Facebook