Acordes y tablaturas para guitarra

Acordes y Tablaturas
Usuario: Password:

Buscar:
Acordes y Tablaturas >> Letra D >> Acordes de Deep Purple >> Smoke On The Water
Tablatura de Smoke On The Water, Deep Purple

Smoke On The Water

Deep Purple






Hola de nuevo, hoy les traigo una nueva cancion, espero la disfruten y que aprendan algo nuevo, no teniendo nada mas que decir comencemos:

INTRO:

e-------------------------------|
B-------------------------------|
G----3-5----3-6-5----3-5--3-----|   (x6)
D--5-3-5--5-3-6-5--5-3-5--3--5--|
A--5------5--------5---------5--|
E-------------------------------|

VERSOS:

El punteo de los versos se toca sin hacer presión en las cuerdas, es decir, posamos los dedos en las respectivas cuerdas y trastes y hacemos una presión no muy fuerte, de ese modo logramos el efecto original. Les daré el punteo original tal como se toca y luego pondré la letra con los acordes para que escojan su preferida:

    (5x)
e---------|---------------------|
B---------|---------------------|
G---------|---------------------|   (x4)
D------5--|------3-----5-----5--|
A----5----|----3-----5-----5----|
E--3------|--1-----3-----3------|

 G5
We all came out to Montreux
               F5    G5
On the lake Geneva shoreline

To make records with a mobile
F5            G5
We didn't have much time

Frank Zappa & the Mothers
                   F5    G5
Were at the best place around

But some stupid with a flare gun    
            F5      G5
Burned the place to the ground.

CORO:

Aquí si tocamos normal los punteos:

e-------------------------------------------|
B-------------------------------------------|
G------5--------------------------5---------|
D----5--------6------5-----5----5--------6--|
A--3--------6------5-----5----3--------6----|
E---------4------3-----3-------------4------|

e-------------------------------|
B-------------------------------|
G----3-5----3-6-5----3-5--3-----|    (x2)
D--5-3-5--5-3-6-5--5-3-5--3--5--|
A--5------5--------5---------5--|
E-------------------------------|

C5          Ab5
Smoke on the water,
 G5
Fire in the sky
  C5          Ab5
Smoke on the water

VERSOS-CORO:

Volvemos con lo mismo:

G5
They burned down the gambling house
                F5     G5
It died with an awful sound
   
Funky & Claude was running in and out,
F5          G5
Pulling kids out of the ground

When it all was over,
                 F5          G5
We had to find another place

Swiss time was running out
                         F5            G5
It seemed that we would lose the race.

(coro)
  C5          Ab5
Smoke on the water,
 G5
Fire in the sky
  C5          Ab5
Smoke on the water

e-------------------------------|
B-------------------------------|
G----3-5----3-6-5----3-5--3-----|    (x2)
D--5-3-5--5-3-6-5--5-3-5--3--5--|
A--5------5--------5---------5--|
E-------------------------------|

SOLO:

e-----------------------------------------------------------------------------------
B------------15r13p11-----11b-----------11-11b13-11-10-8-10-8h10p8----8-------------
G-----10-12~----------12~---------10-12----------------------------10---10-8-10-10--
D--12--------------------------12---------------------------------------------------
A-----------------------------------------------------------------------------------
E-----------------------------------------------------------------------------------

e-----------------------------------------------------------------------------------
B----------------11-13-11-13-13----11----11-13-11-10--------------------------------
G--12-10-12~--12----------------12----12-------------12-11-10-------10--------------
D-------------------------------------------------------------13-10----13-12p10-----
A-------------------------------------------------------------------------------13--
E-----------------------------------------------------------------------------------

e-----------------------------------------------------------------------------------
B---------------------------------------------------6-8-6-8-8-6---------------------
G------------------8-7----------------------------7-------------7-6-5-------5-3-5b7-
D---------8-7-10-8-----10-8b10r8-10-8-7-8-7-8-7-5---------------------8-7-5---------
A--12-10----------------------------------------------------------------------------
E-----------------------------------------------------------------------------------

e--------------------------6-8b10--8b10-8-6-8---------------------------------------
B----------------6-8---6-8--------------------8~-----11-----11-13-11----13-11----13-
G--5b7-5b7-5b7-7-----7----------------------------12-----12----------12-------12----
D-----------------------------------------------------------------------------------
A-----------------------------------------------------------------------------------
E-----------------------------------------------------------------------------------

e----------------------------------15-----------------------------------------------
B--11-13-15-16-18-18b20~--18b20-18----18-18b20--18b20-18-15-13-15-----6-------------
G-----------------------------------------------------------------5b7---5b6r5p3-5-3-
D-----------------------------------------------------------------------------------
A-----------------------------------------------------------------------------------
E-----------------------------------------------------------------------------------

e-----------------------------------------------------------------------------------
B-----------13-11-13-13b15-b15-b15-b15-b15-b15-b15-b15-b15-r14-r14-r14-r13-13-------
G-----11/12-------------------------------------------------------------------------
D--5~-------------------------------------------------------------------------------
A-----------------------------------------------------------------------------------
E-----------------------------------------------------------------------------------

e----------|
B----------|
G--10b12~--|
D----------|
A----------|
E----------|

VERSOS-CORO-FINAL:

G5
We ended up at the Grand Hotel
       F5      G5
It was empty, cold and bare
   
But with the Rolling Trucks Stones thing just outside,
F5              G5
We made our music there

With a few red lights an' a few old beds,
            F5       G5
We made a place to sweat
No matter what we get out of this,
       F5               G5
I know,   I know we'll never forget.

(coro)
  C5          Ab5
Smoke on the water,
 G5
Fire in the sky
  C5          Ab5
Smoke on the water

e-------------------------------|
B-------------------------------|
G----3-5----3-6-5----3-5--3-----|    
D--5-3-5--5-3-6-5--5-3-5--3--5--|
A--5------5--------5---------5--|
E-------------------------------|

Pues eso ha sido todo, gracias por leer, comenten, punteen, etc. Hasta la proxima y ojala les haya servido.

Canción anterior: The Beatles / Let It Be

Próxima canción: Metallica / The Unforgiven

Que te parecio? Calificalo con estrellas!!

Rating: 5.2/10 (24 votos)

Este fichero es trabajo propio de su transcriptor y representa su interpretación personal de la canción. El material contenido en esta página es para exclusivo uso privado, por lo que se prohibe su reproducción o retransmisión, así como su uso para fines comerciales.


Deja tus comentarios:
Letras de canciones | Musica Independiente