Acordes y tablaturas para guitarra

Acordes y Tablaturas
Usuario: Password:

Buscar:
Acordes y Tablaturas >> Letra G >> Acordes de Guns N´ Roses >> Welcome To The Jungle
Tablatura de Welcome To The Jungle, Guns N´ Roses

Welcome To The Jungle

Guns N´ Roses






Tab: Welcome To The Jungle 
Author: Guns N' Roses
Tabbed by: Felipe(Chaos) 

Afinacion: Eb 

Intro:Slash

DELAY
Eb|-------------------------------------|
Bb|-------------------------------------|
Gb|----------4------4-------------------|
Db|-------------------------------------|
Ab|-------------------------------------|
Eb|-------------------------------------|x4

Riff AE:

Eb|-------------------------------------|
Bb|---0------0------0------0-----0---0--|
Gb|-4---4--2---2------------------------|
Db|----------------4--4--2---2-0--------|
Ab|--------------------------------2----|
Eb|-------------------------------------|x4


Riff BE:

EB|---------------------------------------|
Bb|---------------------------------------|
Gb|-4-4-4--2-2-2--------------------------|
Db|---------------4-4-4---2-2-2--0-0------|
Ab|-----------------------------------2-2-|
Eb|---------------------------------------|x4

La Gtr.2 sigue haciendo el rif y la guitarra cuando comienza a hacer el riff BE empieza a tocar:



Gtr.2: deja de tocar a la mitad del riff de izzy y comienzan a tocar al mismo tiempo.
E|----------------------|  / 
B|----------------------|  \ 
G|---4------------7-----|  / 
D|---4----7---2---7--7--|  \, 
A|---2----7---2---5--7--|  / BOTH
E|------- 5---0------5--|  \ GUITARS
                                                                
Gtr.1:izzy                                                          
E|--------------------------------------7--7/5--5-0---------|  / 
B|--------------------------------------7--7/5--5-0---7--5--|  \ 
G|------------7-9-9fb---7qb---------------------------7--6--|  / 
D|---7h9--9-------------------7h9--9s2----------------7--7--|  \ 
A|-------------------------------------------------------0--|  / 
E|----------------------------------------------------------|  \ 
  



Gtr.2: (faster Gtr 2. & 3 => Tempo=124)Slash 
     B5        B5      B5      B5       B5     B5   B5     \ 
E|------------------------------------------------------|  / 
B|------------------------------------------------------|  \ 
G|---4---------4-------4-------4--------4------4----4---|  / 
D|---4---------4-------4-------4--------4------4----4---|  \ 
A|---2---------2-------2-------2--------2------2----2---|  /  
E|------------------------------------------------------|  \ 
                                                           / 
Gtr.1: Izzy                                                    \ in both 
E|-------------------------------------5----------------|  / guitars 
B|-----------------------3---5-----5hb----5---3---------|  \ 
G|----------------2--4------------------------------4\--|  / 
D|---------2--4-----------------------------------------|  \ 
A|--2--4------------------------------------------------|  / 
E|------------------------------------------------------|  \ 



VersO (AL MISMO TIEMPO GUITARRA 1,2) 



Gtr.1:    P.M.     P.M.                       Palm mute    \ 
E|--------------------------|---------------------------|  / 
B|--------------------------|---------------------------|  \ 
G|--2------2--2--0----------|--2-x-x-----2-2--0---------|  / 
D|--2------2--2--0----------|--2-x-x-----2-2--0---------|  \ 
A|--0------0--0-----------0-|--0-x-x-----0-0----------0-|  / 
E|----3hb-----------3--2----|--------3hb--------3--2----|  \ 
                                                           / Play this 
Gtr.2:                                                     \ two times 
Eb|--------------------------|---------------------------|  / 
Bb|--------------------------|---------------------------|  \ 
Gb|--------------------------|---------------------------|  / 
Db|--------------------------|---------------------------|  \ 
Ab|--7-7-5-x-7-7-------------|-7--7--5--7-7---------------|  / 
Eb|--5-5-3-x-5-5-3-2-0-------|-5--5--3--5-5-3--2--0-------|  \ 
                                                           / 

Gtr.1:                                                                     \ 
E|--------------------x--5--------------------|-------------------------|  / 
B|--------------------------------------------|-------------------------|  \ 
G|---2-----------x----------------------------|--2-x-x-----2-2--0-------|  / 
D|---2-----------x----------------------------|--2-x-x-----2-2--0-------|  \ 
A|---0-----0-----x------------------3p0-------|--0-x-x-----0-0--------0-|  / 
E|----------------------------------------2---|--------3hb--------3-2---|  \ 
                                                                           / toca esto 
Gtr.2:                                                                     \ UNA VEZ 
E|--------------------------------------------|-------------------------|  / 
B|--------------------------------------------|-------------------------|  \ 
G|-7fb5-----7--5hb----------------------------|-------------------------|  / 
D|-------7---------7-5------------------------|-------------------------|  \ 
A|----------------------7--6--5\3--5--3-------|-------------------------|  / 
E|---------------------------------------5--3-|--5-5--3-x-5-3-2--0------|  \ 
                                                                           / 
Fills arreglados para slash:

Fill 01 minuto o tiempo aprox de tocar 1:09:

D/-----------7P5--7-5-----------------/
A/------------------------7-6-5/3------/
E/5-5-5-3-------------------------5-3-/

Fill 02:           1:25
E/--12//----/
B/--12//---/
G/--12//---/

Fill 03           1:31,1:56

D/----------------------------------------7p5---5/6--/
A/------------3h4----5-----------3h4---------------/
E/5-5-5-5-----------------5--5---------------------/


Fill 04    1:52

D|-7p5-----------------------------------/
A|------7-6--5-7-6-5-5b-5-3---5---3h4----/
E|--------------------------5---5--------/ 










En la parte ?We are the people that can find...? toca esto: 



Gtr.1:    P.M.     P.M.                       Palm mute    \ 
E|--------------------------|---------------------------|  / 
B|--------------------------|---------------------------|  \ 
G|--9--9--7-x-9--9----------|--2-x-x-----2-2--0---------|  / 
D|--9--9--7-x-9--9--7--6--4-|--2-x-x-----2-2--0---------|  \ 
A|--7--7--5-x-7--7--5--4--2-|--0-x-x-----0-0----------0-|  / 
E|--------------------------|--------3hb--------3--2----|  \ 
                                                           / 
Gtr.2:                                                     \ 
E|--------------------------|---------------------------|  / 
B|--------------------------|---------------------------|  \ 
G|--------------------------|---------------------------|  / 
D|--------------------------|---------------------------|  \ 
A|-7--7--5--7--7--7-5--4--2-|-7--7--5--7--7--7--5--4--2-|  / 
E|-5--5--3--5--5--5-3--2--0-|-5--5--3--5--5--5--3--2--0-|  \ 
                                                           / 







Coro:

        
In the jun-gle,  wel-come to the jun-gle watch it bring you to your 
E|----------------------------------------------------------------| 
B|----------------------------------------------------------------| 
G|--------5-------------------------7-----------------------------| 
D|--------5-------------------------7-----------------------------| 
A|--------3----2--------------------5------4----------------------| 
E|------------------5------3-----------------------7---------5----| 

2º Guitar
E|----------------------------------------------------------------| 
B|----------------------------------------------------------------| 
G|--------5-------------------------7-----------------------------| 
D|--------5-------------------------7-----------------------------| 
A|--------3-------------------------5-----------------------------| 
E|----------------------------------------------------------------| 


   
        sha na na na na na... 

1º Guitar:Izzy

|-----------------------|     |---------------------|
|-----------------------|     |---------------------|
|-----------------------|     |---------------------|
|-----------------------|     |---------------------|
|--7--7--5--1--0--------|     |--7--5---------------|
|-----------------3--0--| 3x|---------6--5--3--4--|

2º Guitar:Slash

|-----------------------|     |---------------------|
|-----------------------|     |---------------------|
|-----------------------|     |---------------------|
|-2--2-0----------------|     |-2--0----------------|
|----------1-0----------|     |-------1--0----------|
|----------------3-0----| 3x|--------------3---0---|









Solo1:

Eb|--------------------------------------|------------------------------15-15---|
Bb|-------------------12-----------15~15-|-------------15-15--14/15-x-x-15-15---|
Gb|-x-12/13--x-13-13~-12--13-x-x---16~16-|-x-12/13-x-x-13-13--15/16-x-x---------|
Db|-x-11/12--x-14-14~-----14-x-x---------|-x-11/12-x-x--------------------------|
Ab|--------------------------------------|--------------------------------------|
Eb|--------------------------------------|--------------------------------------|
Eb|-------19b22------19-18-17b19----15h16-----|-10/12-10--------------------------------------------------|
Gb|----17---------------------------------15--|----------12-11--10b12r10p8?10-8---------------------------|
Bb|=18----------------------------------------|----------------------------------9-7----------------9-8-7-|
Db|-------------------------------------------|---------------------------------------9-8---7b9r7p5-------|
Ab|-------------------------------------------|-----------------------------------------------------------|
Eb|-------------------------------------------|-----------------------------------------------------------|


 ANTES DEL CORO VIENE:
 
|-------------3-----(3)\-------------------------------------------------| 
|--7----------3-----(3)\---6hb-----7---8p7----------12--13p12----------8-| 
|--7----------4-----(4)\---4hb-----7---7------------12---------7\5--5----| 
|--7----5-----5-----(5)\-----------7---7----7---10--12-------------------| 
|--5----3-----5-----(5)\-----------5-------------8--10-------------------| 
|-------------3-----(3)\-------------------------------------------------| 



     And when...     high    you never              ever want to come down 
|------------------------------------------------------------------------| 
|-7-------------------12---13p12---------10\7---7------------------------| 
|---7-----------------12------------------------7------------------------| 
|-----7--6--7----10---12---------12p10---10\7---7-----------------10-----| 
|-----------------8---10-------------------------------------------8-----| 
|------------------------------------------------------------------------| 



       
 Pre-solo:
 
Izzy  part:

Eb |--2--5--7--5-|-2?-3p2---5--7--8p7----5-|-2---5--7--8p7-----|-2--| |--7-7-7-7-7--5--| |--9---|
Bb |--3--6--8--6-|-3------3-6--8------8--6-|-3---6-?8------8-6-|-3--| |--8-8-8-8-8--6--| |--10--|
Gb |--2--5--7--5-|-2--------5--7---------5-|-2---5?-7--------5-|-2--| |--7-7-7-7-7--5--| |--9---|
Db |--0----------|-0-----------------------|-0-----------------|-0--| |----------------| |------|
Ab |-------------|-------------------------|-------------------|----| |----------------| |------|
Eb |-------------|-------------------------|-------------------|----| |----------------|3|------|X5



Slash part:

Eb |--2---3--|--2---3--|-3p2----3--|-2--|
Bb |--3---3--|--3---3--|----3---3--|-3--|
Gb |--2---0--|--2---0--|-----2--0--|-2--|
Db |--0---0--|--0---0--|--------0--|-0--|
Ab |------2--|------2--|--------2--|----|
Eb |------3--|------3--|--------3--|----|





suck  down  suck  down  suck  down              Yeah!

|----------------|---------------------|---------------|-----------|
|----------------|---------------------|---------------|-----------|
|----------------|---------------------|---------------|-----------|Both guitars
|--5-5-5-5-5-?3--|--5-5-5--5-5-5/8--3--|--5-5-5-5-5-?3-|-7-7-7-7-7-|
|--5-5-5-5-5-?3--|--5-5-5--5-5-5/8--3--|--5-5-5-5-5-?3-|-7-7-7-7-7-|
|--3-3-3-3-3--1--|--3-3-3--3-3-3/6--1--|--3-3-3-3-3--1-|-5-5-5-5-5-|






Solo2:

SOLO 2
Eb|-------|-------------------|--------------------------------|--------12--------------------------|
Bb|-15b17-|-15b17-15b17-15b17-|-15b17-15b17-15b17-15b17-15b17--|--12--------15-12----------15b17-15-|
Gb|-------|-------------------|--------------------------------|--14b15-----------15\14-12----------|
Db|-------|-------------------|--------------------------------|------------------------------------|
Ab|-------|-------------------|--------------------------------|------------------------------------|
Eb|-------|-------------------|--------------------------------|------------------------------------|
Eb|--------------|---------------|-------------|-----------7----|------------|---0-------|-0---0---0---0---|
Bb|--------------|---------------|--5---7b9r7--|--7b9p7p5--7b9--|-9r7p5------|-----------|-5---3---2---0---|
Gb|--------------|--------4---6--|----6--------|----------------|-------6-4--|-6----6----|-----------------|
Db|---2---4b6r4--|-2-4\6---------|-------------|----------------|------------|-----------|-----------------|
Ab|-4---4--------|---------------|-------------|----------------|------------|-----------|-----------------|
Eb|--------------|---------------|-------------|----------------|------------|-----------|-----------------|
Eb|-----------------------------------------------|
Bb|-2b3r2p0-2-------------------------------------|
Gb|-2b3r2p0-2-1--1-2-2/4-4-2-2-1------------------|
Db|------------------------------4-4-?2p1p0-2-0h1-|
Ab|-----------------------------------------------|
Eb|-----------------------------------------------|
Eb|--------------------------------|-------9\7-------------------------------------|
Bb|-15b17-15--10b12-10--10b12r10p8-|-----------------------------------------------|
Gb|--------------------------------|-9/7\9==\7--6b7r6-4----------------------------|
Db|--------------------------------|--------------------6b7r6-4--------------------|
Ab|--------------------------------|---------------------------4b5r4-2-------------|
Eb|--------------------------------|-----------------------------------4b5r4-2-0-2-|

Después del segundo solo:parte de Izzy

Eb|--------------------------------| |-------------|---------------|
Bb|--------------------------------| |-------------|---------------|
Gb|--------------------------------| |-------------|---------------|
Db|--------------------------------| |-------------|---------------|
Ab|7-7-7-7-6-6-6-5-5-5-4-4-3-3-2-2-| |-4--3--4--5--|-7--6--7--8----|
Eb|--------------------------------|8|-2--1--2--3--|-5--4--5?-6----|
Después del segundo solo:parte de slash

Eb|---------------------------------|
Bb|---------------------------------|
Gb|---------------------------------|
Db|-5-5-5-5-4-4-4-3-3-3-2-2-1-1-0-0-|
Ab|---------------------------------|
Eb|---------------------------------|x4

Parte final termino de la cancion
eb|------------------------------|----|
Bb|------------------------------|--5-|
Gb|------------------------------|--7-|Both guitars
Db|--9--7----------------2-------|--6-|
Ab|--7--5----8--7--5--2--0-----2-|--7-|
Eb|----------6--5--3--0?-?-3b--0-|----|



Este es el tab mas perfecto si se dan cuenta no es completamente mio si no que yo tome un tab de internet lo rehize y arregle hasta que quedo como si el mismo izzy y slash lo hubieran escrito.

El delay para el intro debe estar repetiendo 4-5sg

Que te parecio? Calificalo con estrellas!!

Rating: 6.0/10 (28 votos)

Este fichero es trabajo propio de su transcriptor y representa su interpretación personal de la canción. El material contenido en esta página es para exclusivo uso privado, por lo que se prohibe su reproducción o retransmisión, así como su uso para fines comerciales.


Comentario de darksnake
Esta es la version mezclada esta Izzy y Slash
Deja tus comentarios:

Letras de Guns N´ Roses
Letras de canciones | Musica Independiente