Enviado por: roder20
Agrandar Letra
Reducir Letra
Imprimir


Otras Versiones de Hoy Tengo Miedo:




Fobia, Hoy Tengo Miedo

(E)              (F#m)        (C#m)    
HOY TENGO MIEDO SALIR OTRA VEZ TENGO MIEDO


------------------
------------------
---9999  1111--9---6---4444-2-----
---9999  1111--9---6X8 4444-2X16----------
---7777  9-9-- 7--4---2222 0-------
--------------------                                           
(B)                   (A) 
DE ENCONTRARTE COMO AQUELLA VES 

XXXXXX Y ESE REPIDE TODO ESTO HASTA EL PRECORO 



EL PRE CORO


(A)                      (G#m)                   (C#m)       (D)

(C#m)    (A)        

Y DIGO NO SEAS TONTO NO SEAS TAN ESERTICO NO TRATES DE ESCAPAR

----------------
--------------
------------- 6   7     6
---7----6-----6---7---- 6      7
---7X8--6--X8 4X8 5--X8-4--X8--7--X16-
---5----4------------          5
 



CORO


(E)                            (F#m)
NO TODOS SON TAN MALOS NO TODOS SON TAN MAL NO TODOS SON 

(C#m)
VILLANOS TRATANDOTE DE MATAR LA VIDA ES UN PICNIK

------------
-----------
--9---11----6---
--9X8 11 X8 6 X16-------
--7---9-----4-
------------




LOS X8 X16 SON LOS TIEMPOS DE LOS RASGUEO SUERTE ESTA AL 100 LOS ACORDES SALUDOS

Y PONGAN PUNTUACION GRACIAS
Aviso: Este fichero es trabajo propio de su transcriptor y representa su interpretación personal de la canción. El material contenido en esta página es para exclusivo uso privado, por lo que se prohibe su reproducción o retransmisión, así como su uso para fines comerciales.

Califica esta canción


Comentarios en Facebook