Enviado por:
bayron_17

Reik, Fui

ACORDES
     re#  Do*  Do** Sim  La SOl  MIm Mim7 Sol* SOL**  Sol***  Re*
e----5----4----X----2----0---3----o---0----x----x------0-------0----|
B----7----5----5----3----2---3----0---3----3----2------3-------2----|
G----7----6----3----4----2---0----0---0----4----4------4-------2----|
D----7----7----5----4----2---0----2---2----5----5------4-------x----|
A----5----4----4----2----0---2----2---2----x----x------0-------4----|
E----X----X----X----X----X---3----X---x----5----5------4-------x----|



Intro :

e-------2-2--------------2-2--------------2-2--------------2-2------|
B-----3-----3---3------3-----3----------3-----3---3------3-----3----|
G---2---------2------2---------2-------2--------2------2---------2--|
D-0-----------------------------------------------------------------|
A-----------------0-------------------------------------------------|
E-------------------------------------3--------------3--------------|

e-------2-2--------------2-2--------------2-2--------------2-|
B-----3-----3---3------3-----3----------3-----3---3------3---|
G---2---------2------2---------2-------2--------2------2-----|
D-0----------------------------------------------------------|
A-----------------0------------------------------------------|
E-------------------------------------3--------------3-------|




Arpegio :

riff :1

  Re#        Do*        Do**       Sim    La     Sol
e--5----------4----------0----------2------0------3-----
B------7----------5----------5----------3------2------3-
G-----7----7-----6----6-----3----3-----4------2------0--
D----7----7-----7----7-----5----5-----4------2------0---
A--5-----5----4-----4----4-----4----2------0------2-----
E-------------------------------------------------------

 Mim    Sol*/Sol**
e-0---------------
B-----0--3---2----
G----0-----4---4--
D---2-------------
A-2---------------
E--------5---5----


riff : 2

  Re#        Do*        Do**       Sim    La     Sol***
e--5----------4----------0----------2------0------0-----
B------7----------5----------5----------3------2------3-
G-----7----7-----6----6-----3----3-----4------2------4--
D----7----7-----7----7-----5----5-----4------2------4---
A--5-----5----4-----4----4-----4----2------0------------
E-------------------------------------------------4-----

 Sol    Sol*   Re#    Sol*
e-3------0------5------0---
B-----3------3------7--3---
G----4------4------7---4---
D---5------5------7----5---
A-5-------------5------x---
E--------5-------------5---


coro:


  Re#      Do*      Sim    Sol    Re       La
e--5-----5--4-----4--2------3------2-----x--0-------
B------7-7------5-5------3------3--------x------2---
G-----7--7-----6--6-----4------0------2--x-----2----
D----7---7----7---7----4------0------0---x----2-----
A--5-----5--4-----4--2------2------0-----x--0-------
E--------x--------x----------------------x----------


  Re#      Do*      Sim    Sol    La
e--5-----5--4-----4--2------3------0-----0--
B------7-7------5-5------3------3------2-2--
G-----7--7-----6--6-----4------0------2--2--
D----7---7----7---7----4------0------2---2--
A--5-----5--4-----4--2------2------0-----0--
E--------x--------x----------------------x--


Importante:

-si quieren pueden tocar toda la cancion arpegiada o rasgueada
como lo prefieran suena bn
-disulpen si los nombres de las notas no estan correctas, sigan la
tablatura que  esta muy bn.
-las pisadas son correctas son las origenales con que  toca reik
( en vivo)


riff : 1

Re#
Hoy,
        Do*
Con el dolor,
              Do**        SIm
Llega el fantasma de tu voz,
     La  Sol
Diciéndome,
           Mim   Sol*   Sol**
Ya no llores amor.

riff : 2

Re#
Soy,
        Do*
Un eslabón,
                Do**         Sim   La
Que se ha perdido entre tu y yo.
       Sol***
Por favor,
    Sol               Sol*        Re#    Sol*
Sólo llévate el silencio que quedó.


Coro:


Re#
Fui,
          Do*
Fuego por ti,

             SIm        sol
Hoy sólo quedan las cenizas,
  RE            La
Los restos de mí.

Re#
Fui,
            Do*
Todo y sin ti,
     SIm            Sol         La
Desaparezco poco a poco y me perdí,

Dentro de mí

INTRO?

e-------2-2--------------2-2--------------2-2--------------2-|
B-----3-----3---3------3-----3----------3-----3---3------3---|
G---2---------2------2---------2-------2--------2------2-----|
D-0----------------------------------------------------------|
A-----------------0------------------------------------------|
E------------------------------------3---------------3-------|

riff : 2

 Re#
Fue,
            Do*
Frío el adiós,
        Do**          SIm    La
La despedida de los dos,
       Sol***
Por favor,
           Sol      Sol*          Re#     Sol*
Sólo llévate el silencio que quedó.

coro:

Re#
Fui,
            Do*
Fuego por ti,
             SIm         Sol
Hoy sólo quedan las cenizas,
       Re      La
Los restos de mí

Re#
Fui,
              Do*
Todo y sin ti,
             SIm            Sol  La
Desaparezco poco a poco y me perdí,


NOTA: este pedaso va con rasgueo


 Mim7  -------------------? e-B-G-A-D-E
A tu lado fui,               0-3-0-2-2-*

Tan fuerte,

Re/Fa# ------------------- e-B-G-A-D-E
Nunca imaginé,             0-3-2-0-0-2

Perderte,
Sol      Sol*
No ? no no no

Re
Fui,
          Re*
Fuego por ti,
                    SIm    Sol
Hoy sólo quedan las cenizas,
   Re          La
Los restos de mí.
Re
Fui,
              Re*
Todo y sin ti,
        SIm        Sol          La
Desaparezco poco a poco y me perdí,

Dentro de mí.

Intro?

e-------2-2--------------2-2--------------2-2--------------2-|
B-----3-----3---3------3-----3----------3-----3---3------3---|
G---2---------2------2---------2-------2--------2------2-----|
D-0----------------------------------------------------------|
A-----------------0------------------------------------------|
E-------------------------------------3--------------3-------|

              Re
Dentro de mí.
Aviso: Este fichero es trabajo propio de su transcriptor y representa su interpretación personal de la canción. El material contenido en esta página es para exclusivo uso privado, por lo que se prohibe su reproducción o retransmisión, así como su uso para fines comerciales.
comentario del colaborador: www.lacuerda.net

Califica esta canción


Comentarios en Facebook