Acordes y tablaturas para guitarra

Acordes y Tablaturas
Usuario: Password:

Buscar:
Acordes y Tablaturas >> Letra R >> Acordes de Rammstein >> Engel
Tablatura de Engel, Rammstein

Engel

Rammstein






Gtr I
   H.       Q    H.       Q     H.       Q     W
|-10-----------|-8-----------|--------------|-------|
|----------10--|---------10--|-12-----------|-10----|
|--------------|-------------|----------12--|-------|
|--------------|-------------|--------------|-------|
|--------------|-------------|--------------|-------|
|--------------|-------------|--------------|-------|


   H.       Q    H.       Q     H.       Q     W
|-10-----------|-8-----------|--------------|-------|
|----------10--|---------10--|-12-----------|-------|
|--------------|-------------|----------12--|-------|
|--------------|-------------|--------------|-12----|
|--------------|-------------|--------------|-------|
|--------------|-------------|--------------|-------|


    N.C.
    Gtr II
        PM|     PM|     PM    PM          PM|     PM|     PM    PM
    S S S S S S S S S S S S S S S S   S S S S S S S S S S S S S S S S
||----------------------------------|---------------------------------|
||o---------------------------------|---------------------------------|
||----------------------------------|---------------------------------|
||----------------------------------|---------------------------------|
||o-3h5-----6p5-----3h5---3h5---6p5-|-3h5-----6p5-----3h5---3h5---6p5-|
||------0-0-----0-0-----0-----0-----|-----0-0-----0-0-----0-----0-----|


  N.C.
      PM|     PM|     PM    PM          PM|     PM|     PM     PM-----|
  S S S S S S S S S S S S S S S S   S S S S S S S S S S S S S  S   S   S
|---------------------------------|----------------------------------------||
|---------------------------------|---------------------------------------o||
|---------------------------------|----------------------------------------||
|---------------------------------|----------------------------------------||
|-3h5-----6p5-----3h5---3h5---6p5-|-3h5-----6p5-----3h5---3h5-------------o||
|-----0-0-----0-0-----0-----0-----|-----0-0-----0-0-----0-----(3)-(3)-(3)--||


 Verse
  Wx8
|--------|
|--------|
|--------|
|--------|
|--------|
|--------|


   Pre-Chorus
    N.C.                                  N.C.
    Gtr II
      E     E   E     E H      W            E     E   E     E H      W
||--(13)b15---(13)b15--------|----------|-(13)b15---(13)b15--------|-------||
||o--------------------------|----------|--------------------------|------o||
||---------------------------|----------|--------------------------|-------||
||---------------------------|----------|--------------------------|-------||
||o--------------------------|----------|--------------------------|------o||
||---------------------------|----------|--------------------------|-------||


   Chorus
    $
    N.C.
    Gtr I
     H.                       Q         H.                       Q
||--10--------------------------------|-8--------------------------------|
||o--------------------------10-------|-------------------------10-------|
||------------------------------------|----------------------------------|
||------------------------------------|----------------------------------|
||o-----------------------------------|----------------------------------|
||------------------------------------|----------------------------------|
|
|   Gtr II
|        PM|     PM|     PM     PM          PM|     PM|     PM     PM
|    S S S S S S S S S S S S  S S S S   S S S S S S S S S S S S  S S S S
||------------------------------------|----------------------------------|
||o-----------------------------------|----------------------------------|
||------------------------------------|----------------------------------|
||------------------------------------|----------------------------------|
||o--3h5-----6p5-----3h5---3h=5---6p5-|-3h5-----6p5-----3h5---3h=5---6p5-|
||-------0-0-----0-0-----0------0-----|-----0-0-----0-0-----0------0-----|


                                     1.
  N.C.
   H.                       Q          W
|-----------------------------------|-----------------------------------------||
|-12--------------------------------|-10-------------------------------------o||
|--------------------------12-------|-----------------------------------------||
|-----------------------------------|-----------------------------------------||
|-----------------------------------|----------------------------------------o||
|-----------------------------------|-----------------------------------------||
|
|      PM|     PM|     PM     PM           PM|     PM|     PM     PM-----|
|  S S S S S S S S S S S S  S S S S    S S S S S S S S S S S S S  S   S   S
|-----------------------------------|-----------------------------------------||
|-----------------------------------|----------------------------------------o||
|-----------------------------------|-----------------------------------------||
|-----------------------------------|-----------------------------------------||
|--3h5-----6p5-----3h5---3h=5---6p5-|--3h5-----6p5-----3h5---3h5-------------o||
|------0-0-----0-0-----0------0-----|------0-0-----0-0-----0-----(3)-(3)-(3)--||


 2.
                              To Coda
   W
|----------------------------------------|
|----------------------------------------|
|----------------------------------------|
|-12-------------------------------------|
|----------------------------------------|
|----------------------------------------|
|
|      PM|     PM|     PM     PM-----|
|  S S S S S S S S S S S S S  S   S   S
|----------------------------------------|
|----------------------------------------|
|----------------------------------------|
|----------------------------------------|
|--3h5-----6p5-----3h5---3h5-------------|
|------0-0-----0-0-----0-----(3)-(3)-(3)-|


 Verse
  N.C.
  Gtr II
  W            W
|----------||-----------|
|----------||o----------|
|----------||-----------|
|----------||-----------|
|----------||o----------|
|----------||-----------|


  N.C.
   PM---------------------------------------------------------|
   S   S   S   S   S   S   S   S   S   S   S   S   S   S   S   S   4x
|------------------------------------------------------------------||
|-----------------------------------------------------------------o||
|------------------------------------------------------------------||
|------------------------------------------------------------------||
|-(3)-(5)-(5)-----(6)-(5)-(5)-----(3)-(5)-----(3)-(5)-------------o||
|-------------(0)-------------(0)---------(0)---------(3)-(3)-(3)--||


   Pre-Chorus
    N.C.(A5)                   (A5/E)
      E     E   E     E H      W
||--(13)b15---(13)b15--------|----------|
||o--------------------------|----------|
||---------------------------|----------|
||---------------------------|----------|
||o--------------------------|----------|
||---------------------------|----------|
|
|   Gtr III
|     W                        W
||---------------------------|----------|
||o--------------------------|----------|
||----7----------------------|-9--------|
||----7----------------------|-7--------|
||o---5----------------------|-7--------|
||---------------------------|----------|


                            1.           2.
                                D.S. al Coda
  N.C.(G5/D)                 (D5/A)
    E     E   E     E H      W            W
|-(13)b15---(13)b15--------|-----------||-------|
|--------------------------|----------o||-------|
|--------------------------|-----------||-------|
|--------------------------|-----------||-------|
|--------------------------|----------o||-------|
|--------------------------|-----------||-------|
|
|   W                        W            W
|--------------------------|-----------||-------|
|--------------------------|----------o||-------|
|---7----------------------|-----------||-------|
|---5----------------------|-7---------||-------|
|---5----------------------|-5--------o||-------|
|--------------------------|-5---------||-------|


   Synth Solo
    &
    N.C.
    Gtr IV
    S S S  S  S S S E S S S S S E   S S S  S  S S S E S S S S S S  S
||--------------------------------|-3-----------------5-3-1-1-0-------|
||o-3-5-6-(6)---------6-5-3-3-5---|---5-6-(6)---5---------------3-(3)-|
||--------------7-----------------|-----------------------------------|
||--------------------------------|-----------------------------------|
||o-------------------------------|-----------------------------------|
||--------------------------------|-----------------------------------|


  N.C.
  S S S  S  S S S E S S S S S E   S S S  S  S S S E S S S S S E
|-------------------------------|-3-----------------5-3-1-0-0-----||
|-3-5-6-(6)---------6-5-3-3-5---|---5-6-(6)---5------------------o||
|-------------7-----------------|---------------------------------||
|-------------------------------|---------------------------------||
|-------------------------------|--------------------------------o||
|-------------------------------|---------------------------------||

[ Tab from: http://www.guitaretab.com/r/rammstein/15515.html ]
   Pre-Chorus
    D5         A5/E       G5/D       D5/A
    Gtr III
    W          W          W          W     3x
||-----------|----------|----------|-------||
||o----------|----------|----------|------o||
||--7--------|-9--------|-7--------|-------||
||--7--------|-7--------|-5--------|-7-----||
||o-5--------|-7--------|-5--------|-5----o||
||-----------|----------|----------|-5-----||


   Out-Chorus
    N.C.
    Gtr I
     H.                       Q         H.                       Q
||--10--------------------------------|-8--------------------------------|
||o--------------------------10-------|-------------------------10-------|
||------------------------------------|----------------------------------|
||------------------------------------|----------------------------------|
||o-----------------------------------|----------------------------------|
||------------------------------------|----------------------------------|
|
|   Gtr II
|        PM|     PM|     PM     PM          PM|     PM|     PM     PM
|    S S S S S S S S S S S S  S S S S   S S S S S S S S S S S S  S S S S
||------------------------------------|----------------------------------|
||o-----------------------------------|----------------------------------|
||------------------------------------|----------------------------------|
||------------------------------------|----------------------------------|
||o--3h5-----6p5-----3h5---3h=5---6p5-|-3h5-----6p5-----3h5---3h=5---6p5-|
||-------0-0-----0-0-----0------0-----|-----0-0-----0-0-----0------0-----|


  N.C.
   H.                       Q          W
|-----------------------------------|-----------------------------------------||
|-12--------------------------------|-10-------------------------------------o||
|--------------------------12-------|-----------------------------------------||
|-----------------------------------|-----------------------------------------||
|-----------------------------------|----------------------------------------o||
|-----------------------------------|-----------------------------------------||
|
|      PM|     PM|     PM     PM           PM|     PM|     PM     PM-----|
|  S S S S S S S S S S S S  S S S S    S S S S S S S S S S S S S  S   S   S
|-----------------------------------|-----------------------------------------||
|-----------------------------------|----------------------------------------o||
|-----------------------------------|-----------------------------------------||
|-----------------------------------|-----------------------------------------||
|--3h5-----6p5-----3h5---3h=5---6p5-|--3h5-----6p5-----3h5---3h5-------------o||
|------0-0-----0-0-----0------0-----|------0-0-----0-0-----0-----(3)-(3)-(3)--||


  N.C.
   W                                  W
|-10-------------------------------|-12-------------------------------|
|----------------------------------|----------------------------------|
|----------------------------------|----------------------------------|
|----------------------------------|----------------------------------|
|----------------------------------|----------------------------------|
|----------------------------------|----------------------------------|
|
|      PM|     PM|     PM    PM           PM|     PM|     PM    PM
|  S S S S S S S S S S S S S S S S    S S S S S S S S S S S S S S S S
|----------------------------------|----------------------------------|
|----------------------------------|----------------------------------|
|----------------------------------|----------------------------------|
|----------------------------------|----------------------------------|
|--3h5-----6p5-----3h5---3h5---6p5-|--3h5-----6p5-----3h5---3h5---6p5-|
|------0-0-----0-0-----0-----0-----|------0-0-----0-0-----0-----0-----|


  N.C.
   Q.           E    +Q        Q
|-15-----------13---(13)------12-------|
|--------------------------------------|
|--------------------------------------|
|--------------------------------------|
|--------------------------------------|
|--------------------------------------|
|
|      PM|      PM|       PM     PM
|  S S S S S S  S S   S S S S  S S S S
|--------------------------------------|
|--------------------------------------|
|--------------------------------------|
|--------------------------------------|
|--3h5-----6p5--------3h5---3h=5---6p5-|
|------0-0------0-0-------0------0-----|


   Q.          E   +Q       Q
|-10-----------8---(8)------6-------------|
|-----------------------------------------|
|-----------------------------------------|
|-----------------------------------------|
|-----------------------------------------|
|-----------------------------------------|
|
|      PM|     PM|      PM     PM-----|
|  S S S S S S S S  S S S S S  S   S   S
|-----------------------------------------|
|-----------------------------------------|
|-----------------------------------------|
|-----------------------------------------|
|--3h5-----6p5------3h5---3h5-------------|
|------0-0-----0-0------0-----(3)-(3)-(3)-|


  N.C.
  Q       E   E   +H                 Q       E   E   +H
|-5-------3---5---(5)--------------|-5-------3---5---(5)--------------|
|----------------------------------|----------------------------------|
|----------------------------------|----------------------------------|
|----------------------------------|----------------------------------|
|----------------------------------|----------------------------------|
|----------------------------------|----------------------------------|
|
|     PM|     PM|      PM    PM          PM|     PM|      PM    PM
| S S S S S S S S  S S S S S S S S   S S S S S S S S  S S S S S S S S
|----------------------------------|----------------------------------|
|----------------------------------|----------------------------------|
|----------------------------------|----------------------------------|
|----------------------------------|----------------------------------|
|-3h5-----6p5------3h5---3h5---6p5-|-3h5-----6p5------3h5---3h5---6p5-|
|-----0-0-----0-0------0-----0-----|-----0-0-----0-0------0-----0-----|


  N.C.
   H.                       Q          W
|-10-----------------------12-------|-10-------------------------------------|
|-----------------------------------|----------------------------------------|
|-----------------------------------|----------------------------------------|
|-----------------------------------|----------------------------------------|
|-----------------------------------|----------------------------------------|
|-----------------------------------|----------------------------------------|
|
|      PM|     PM|     PM     PM           PM|     PM|     PM     PM-----|
|  S S S S S S S S S S S S  S S S S    S S S S S S S S S S S S S  S   S   S
|-----------------------------------|----------------------------------------|
|-----------------------------------|----------------------------------------|
|-----------------------------------|----------------------------------------|
|-----------------------------------|----------------------------------------|
|--3h5-----6p5-----3h5---3h=5---6p5-|--3h5-----6p5-----3h5---3h5-------------|
|------0-0-----0-0-----0------0-----|------0-0-----0-0-----0-----(3)-(3)-(3)-|


 Outro
  D5             A5/E          G5/D           D5/A
   H.       Q    H.       Q     H.       Q     W
|-10-----------|-8-----------|--------------|-------*|
|----------10--|---------10--|-12-----------|-------*|
|--------------|-------------|----------12--|-------*|
|--------------|-------------|--------------|-12----*|
|--------------|-------------|--------------|-------*|
|--------------|-------------|--------------|-------*|
|
| Gtr III
|  W             W              W              W
|--------------|-------------|--------------|-------*|
|--------------|-------------|--------------|-------*|
|--7-----------|-9-----------|--7-----------|-------*|
|--7-----------|-7-----------|--5-----------|--7----*|
|--5-----------|-7-----------|--5-----------|--5----*|
|--------------|-------------|--------------|--5----*|

Que te parecio? Calificalo con estrellas!!

Rating: 7.0/10 (33 votos)

Este fichero es trabajo propio de su transcriptor y representa su interpretación personal de la canción. El material contenido en esta página es para exclusivo uso privado, por lo que se prohibe su reproducción o retransmisión, así como su uso para fines comerciales.


Deja tus comentarios:

Letras de Rammstein
Letras de canciones | Musica Independiente