Enviado por:
duff-665

Camila, Alejate De Mi

SON TIENPOS ALTERNADO   Y HAY PARTES QUE SE REPITEN  




              (POR 4 )

G---------
D---------
A--4------
E----7-5--


--------------------------------


               (POR 2 )

G-----------
D-----------
A----4------
E--4---5-7--


---------------------------------

                  (POR 2 )


G-----------------
D-----------------
A----7---4--------
E--5---7---7-5-7--

----------------------------------

                  (POR 1 )


G---------
D---------
A--3------
E----7-5--


    ESPERO QUE LES  GUSTE   EL TE    SON TIENPOS ALTERNADO 
      
       MI  FECABOOK ES   BRIAN NICOLAS FLAHERTY  

    ESPERO QU LES SEA DE SU AGRADO  BESOS
Aviso: Este fichero es trabajo propio de su transcriptor y representa su interpretación personal de la canción. El material contenido en esta página es para exclusivo uso privado, por lo que se prohibe su reproducción o retransmisión, así como su uso para fines comerciales.

Califica esta canción


Comentarios en Facebook