Enviado por: kevinbb09
Agrandar Letra
Reducir Letra
Imprimir

Acordes:
½ tono
| +0 |
½ tono
||
Volver

Otras Versiones de Tu Amor No Es De Este Mundo:




Tercer Cielo, Tu Amor No Es De Este Mundo

Esta es la cancion de tu amor no es de este mundo de tercer cielo espero que les guste para mi este bien hecho los acordes
INTRO:
                            
E--------------------------------------------
B-----5s7-7-5---5---5-5-7-5------------------
G-------------7---7---------7-4--------------
D--------------------------------------------
A--------------------------------------------
E--------------------------------------------


                                       
E----12s14-14-12----12---12-12-14-12---------
B----------------15----15------------15-12---
G--------------------------------------------
D--------------------------------------------
A--------------------------------------------
E--------------------------------------------

ESTROFA I

          D-A         Bm
QUIERO SABER CUÁL ES EL MOTOR
    G              D          A            G
QUE MUEVE TU AMOR PARA QUE SEA TAN INTENSO
 Bm            A                 G
QUÉ ES LO QUE TENGO QUE ME AMAS TANTO
            D                  Bm  A 
QUE AUN QUE TANTAS VECES HE FALLADO
               G
Y ME HAS PERDONADO

     D-A             Bm
NO SÉ QUE MIRASTE EN MI 
                G
QUÉ TENGO DE ESPECIAL
 D             A       G
PARA QUÉ TE ENTREGARAS ASÍ
 Bm           A                   G
QUÉ TE HABRÁ HECHO DESCENDER DEL CIELO
        D                Bm    A 
HABER VIVIDO TANTO SUFRIMIENTO
             G
SI YO NO LO MEREZCO


CORO
                       D
TU AMOR NO ES DE ESTE MUNDO
A                                 Bm
NO HAY AMOR HUMANO COMPARABLE AL TUYO
   G
ES MÁS GRANDE QUE EL PLANETA
 D
ES MÁS BELLO QUE UNA ESTRELLA
A                                  Bm
AGRADEZCO TANTO QUE TE FIJASTE EN MI 
              G
Y QUIERO ADORARTE
            D
PORQUE MI ALMA ES INCANSABLE
      A                      Bm
CADA DÍA QUIERE AGRADECERTE MÁS
                 G
Y DARTE TODA GLORIA
                 Em
BRINDARTE TODA HONRA
                     A 
PORQUE A TI TE PERTENECE

SIEMPRE
                        
E--------------------------------------------
B-----5s7-7-5---5---5-5-7-5------------------
G-------------7---7---------7-4--------------
D--------------------------------------------
A--------------------------------------------
E--------------------------------------------


                                        
E----12s14-14-12----12---12-12-14-12---------
B----------------15----15------------15-12---
G--------------------------------------------
D--------------------------------------------
A--------------------------------------------
E--------------------------------------------

ESTROFA II

  D-A             Bm
NO SÉ QUE MIRASTE EN MI 
                G
QUÉ TENGO DE ESPECIAL
 D             A       G
PARA QUÉ TE ENTREGARAS ASÍ
 Bm           A                   G
QUÉ TE HABRÁ HECHO DESCENDER DEL CIELO
        D                Bm    A 
HABER VIVIDO TANTO SUFRIMIENTO
             G
SI YO NO LO MEREZCO


CORO
                       D
TU AMOR NO ES DE ESTE MUNDO
A                                 Bm
NO HAY AMOR HUMANO COMPARABLE AL TUYO
   G
ES MÁS GRANDE QUE EL PLANETA
 D
ES MÁS BELLO QUE UNA ESTRELLA
A                                  Bm
AGRADEZCO TANTO QUE TE FIJASTE EN Mi 
              G
Y QUIERO ADORARTE
            D
PORQUE MI ALMA ES INCANSABLE
      A                      Bm
CADA DÍA QUIERE AGRADECERTE MÁS
                 G
Y DARTE TODA GLORIA
                 Em
BRINDARTE TODA HONRA
                     A 
PORQUE A TI TE PERTENECE

SIEMPRE
                            
E--------------------------------------------
B-----5s7-7-5---5---5-5-7-5------------------
G-------------7---7---------7-4--------------
D--------------------------------------------
A--------------------------------------------
E--------------------------------------------
SIEMPRE...  D-A-G


         D-A         Bm
QUIERO SABER CUÁL ES EL MOTOR
    G              D          A            G
QUE MUEVE TU AMOR PARA QUE SEA TAN INTENSO
Aviso: Este fichero es trabajo propio de su transcriptor y representa su interpretación personal de la canción. El material contenido en esta página es para exclusivo uso privado, por lo que se prohibe su reproducción o retransmisión, así como su uso para fines comerciales.
comentario del colaborador: http://lacuerda.net/tabs/t/tercer_cielo/tu_amor_no_es_de_este_mundo.shtml

Califica esta canción


Comentarios en Facebook