Enviado por: thrasher18
Agrandar Letra
Reducir Letra
Imprimir



Bullet For My Valentine, Your Betrayal

Bullet for My Valentine
\"Your Betrayal\"
Fever

INTRO Part 1---
Both guitars:
(0:00)
|----------------------------------------------------|
|----------------------------------------------------|
|----------------------------------------------------|
|----------------------------------------------------|
|-000000000--00000--00000----000000000--00000--00000-|
|-000000000--00000--00000----000000000--00000--00000-|
  .........  .....  .....    .........  .....  .....

(0:07)
|-------------------------------------------------------------------|
|-------------------------------------------------------------------|
|-------------------------------------------------------------------|
|---------------------------------------------------\\\\\\\\\\\\\\\\\\\\\\\\\\\\\\-|
|-000000000--00000--00000----000000000--00000--0000-\\\\\\PICKSLIDE\\\\\\-|
|-000000000--00000--00000----000000000--00000--0000-\\\\\\\\\\\\\\\\\\\\\\\\\\\\\\-|
  .........  .....  .....    .........  .....  ....


INTRO Part 2---
Guitar 1:
(0:14)
[count each note as TWO strums]
|---------------------------------------------------------------------|
|---------------------------------------------------------------------|
|-7-7-7-7-7-7-7-7-7-7-7-7\\3-3-3-3/7-7-7-7-7-7-7-7-7-7-7-7/10-10-10-10-|
|-x-x-x-x-x-x-x-x-x-x-x-x\\x-x-x-x/x-x-x-x-x-x-x-x-x-x-x-x/-x--x--x--x-|
|-5-5-5-5-5-5-5-5-5-5-5-5\\1-1-1-1/5-5-5-5-5-5-5-5-5-5-5-5/-8--8--8--8-|
|---------------------------------------------------------------------|

(0:21)
|---------------------------------------------------------------------|
|---------------------------------------------------------------------|
|-7-7-7-7-7-7-7-7-7-7-7-7\\3-3-3-3/7-7-7-7-7-7-7-7-7-7-7-7/10-10-10-10-|
|-x-x-x-x-x-x-x-x-x-x-x-x\\x-x-x-x/x-x-x-x-x-x-x-x-x-x-x-x/-x--x--x--x-|
|-5-5-5-5-5-5-5-5-5-5-5-5\\1-1-1-1/5-5-5-5-5-5-5-5-5-5-5-5/-8--8--8--8-|
|---------------------------------------------------------------------|

Guitar 2:
(0:14)
|----------------------------------------------------------|
|----------------------------------------------------------|
|----------------------------------------------------------|
|----------------------------------------------------------|
|-000000000~--00000~--00000~----000000000~--00000~--00000~-|
|-000000000~--00000~--00000~----000000000~--00000~--00000~-|
  .........   .....   .....     .........   .....   .....

(0:21)
|----------------------------------------------------------|
|----------------------------------------------------------|
|----------------------------------------------------------|
|----------------------------------------------------------|
|-000000000~--00000~--00000~----000000000~--00000~--00000~-|
|-000000000~--00000~--00000~----000000000~--00000~--00000~-|
  .........   .....   .....     .........   .....   .....


INTRO Part 3---
Both guitars:
(0:28)
|---------------------------------------------------------|
|---------------------------------------------------------|
|---------------------------------------------------------|
|---------------------------------------------------------|
|-000000000--00000--00000----000000000--00000--0000-------|
|-000000000--00000--00000----000000000--00000--0000--15\\\\-|
  .........  .....  .....    .........  .....  ....


INTRO Part 4--- [LEFT-HAND TAPPING]
(0:35)
Guitar 1:
|-----------------------------------------------------------------|
|-----------------------------------------------------------------|
|-----------------------------------------------------------------|
|-------------7p0-5p0-3p0-5p0-7p0-8p0-7p0-5p0-7p0-5p0-3p0-5p0-3p0-|
|-5p0-3p0-5p0-----------------------------------------------------|
|-----------------------------------------------------------------|

(0:39)
|-----------------------------------------------------------------|
|-----------------------------------------------------------------|
|-----------------------------------------------------------------|
|-------------7p0-5p0-3p0-5p0-7p0-8p0-7p0-5p0-7p0-5p0-3p0-5p0-3p0-|
|-5p0-3p0-5p0-----------------------------------------------------|
|-----------------------------------------------------------------|

(0:43)
|-----------------------------------------------------------------|
|-----------------------------------------------------------------|
|-----------------------------------------------------------------|
|-------------7p0-5p0-3p0-5p0-7p0-8p0-7p0-5p0-7p0-5p0-3p0-5p0-3p0-|
|-5p0-3p0-5p0-----------------------------------------------------|
|-----------------------------------------------------------------|

(0:46)
|-----------------------------------------------------------------|
|-----------------------------------------------------------------|
|-----------------------------------------------------------------|
|-------------7p0-5p0-3p0-5p0-7p0-8p0-7p0-5p0-7p0-5p0-3p0-5p0-3p0-|
|-5p0-3p0-5p0-----------------------------------------------------|
|-----------------------------------------------------------------|

Guitar 2:
(0:35)
|----------------------------|
|----------------------------|
|----------------------------|
|----------------------------|
|-000000000~--00000~--00000~-|
|-000000000~--00000~--00000~-|
  .........   .....   .....

(0:39)
|----------------------------|
|----------------------------|
|----------------------------|
|----------------------------|
|-000000000~--00000~--00000~-|
|-000000000~--00000~--00000~-|
  .........   .....   .....

(0:43)
|----------------------------|
|----------------------------|
|----------------------------|
|----------------------------|
|-000000000~--00000~--00000~-|\\
|-000000000~--00000~--00000~-| \\
  .........   .....   .....     \\
                                 - partial palm mute.
(0:46)                          /
|----------------------------| /
|----------------------------|/
|----------------------------|
|----------------------------|
|-000000000~--00000~--00000~-|
|-000000000~--00000~--00000~-|
  .........   .....   .....


INTRO Part 5---
Guitar 1:
(0:50)
[THE LAST ONE IS DIFFERENT, SO LOOK FOR THAT]
|-----------------------------------------------------------------|
|-----------------------------------------------------------------|
|-----------------------------------------------------------------|
|-------------7p0-5p0-3p0-5p0-7p0-8p0-7p0-5p0-7p0-5p0-3p0-5p0-3p0-|
|-5p0-3p0-5p0-----------------------------------------------------|
|-----------------------------------------------------------------|

(0:53)
|-----------------------------------------------------------------|
|-----------------------------------------------------------------|
|-----------------------------------------------------------------|
|-------------7p0-5p0-3p0-5p0-7p0-8p0-7p0-5p0-7p0-5p0-3p0-5p0-3p0-|
|-5p0-3p0-5p0-----------------------------------------------------|
|-----------------------------------------------------------------|

(0:57)
|-----------------------------------------------------------------|
|-----------------------------------------------------------------|
|-----------------------------------------------------------------|
|-------------7p0-5p0-3p0-5p0-7p0-8p0-7p0-5p0-7p0-5p0-3p0-5p0-3p0-|
|-5p0-3p0-5p0-----------------------------------------------------|
|-----------------------------------------------------------------|

(1:00)
|------------------------------------------------------------------|
|------------------------------------------------------------------|
|------------------------------------------------------------------|
|-------------7p0-5p0-3p0-5p0-7p0-10p0-8p0-7p0-8p0-7p0-5p0-7p0-5p0-|
|-5p0-3p0-5p0------------------------------------------------------|
|------------------------------------------------------------------|

Guitar 2:
(0:50)
|-----------------------------------|
|-----------------------------------|
|-----------------------------------|
|----------0~-------0~-------0~--0~-|
|-00000000-0~--0000-0~--0000-0~--0~-|
|-00000000-0~--0000-0~--0000-0~--0~-|
  ........     ....     ....

(0:53)
|-------------------------------------|
|-------------------------------------|
|-------------------------------------|
|----------0~-------0~-------12~--10~-|
|-00000000-0~--0000-0~--0000-12~--10~-|
|-00000000-0~--0000-0~--0000-12~--10~-|
  ........     ....     ....

(0:57)
|-----------------------------------|
|-----------------------------------|
|-----------------------------------|
|----------8~-------8~-------8~--8~-|
|-88888888-8~--8888-8~--8888-8~--8~-|
|-88888888-8~--8888-8~--8888-8~--8~-|
  ........     ....     ....

(1:00)
|-------------------------------------------------------|
|---(tens, obviously)-----------------------------------|
|-------------------------------------------------------|
|------------------10~-----------------------------12\\\\-|
|-1010101010101010-10~--10101010-------------------12\\\\-|
|-1010101010101010-10~--10101010--3-00000-3-00000--12\\\\-|
  ................      ........  . ..... . .....


INTRO Part 6---
Guitar 1:
(1:04)
|-----------------------------------------------------------------|
|-----------------------------------------------------------------|
|-----------------------------------------------------------------|
|-------------7p0-5p0-3p0-5p0-7p0-8p0-7p0-5p0-7p0-5p0-3p0-5p0-3p0-|
|-5p0-3p0-5p0-----------------------------------------------------|
|-----------------------------------------------------------------|

(1:08)
|-----------------------------------------------------------------|
|-----------------------------------------------------------------|
|-----------------------------------------------------------------|
|-------------7p0-5p0-3p0-5p0-7p0-8p0-7p0-5p0-7p0-5p0-3p0-5p0-3p0-|
|-5p0-3p0-5p0-----------------------------------------------------|
|-----------------------------------------------------------------|

(1:11)
|-----------------------------------------------------------------|
|-----------------------------------------------------------------|
|-----------------------------------------------------------------|
|-------------7p0-5p0-3p0-5p0-7p0-8p0-7p0-5p0-7p0-5p0-3p0-5p0-3p0-|
|-5p0-3p0-5p0-----------------------------------------------------|
|-----------------------------------------------------------------|

(1:15)
|-----------------------------------------------|
|-----------------------------------------------|
|-----------------------------------------------|
|-------------7p0-5p0-3p0-5p0-7p0--7--5--3--2v--|
|-5p0-3p0-5p0-----------------------------------|
|-----------------------------------------------|

Guitar 2:
(1:04)
|-----------------------------------|
|-----------------------------------|
|-----------------------------------|
|----------0~-------0~-------0~--0~-|
|-00000000-0~--0000-0~--0000-0~--0~-|
|-00000000-0~--0000-0~--0000-0~--0~-|
  ........     ....     ....

(1:08)
|-------------------------------------|
|-------------------------------------|
|-------------------------------------|
|----------0~-------0~-------12~--10~-|
|-00000000-0~--0000-0~--0000-12~--10~-|
|-00000000-0~--0000-0~--0000-12~--10~-|
  ........     ....     ....

(1:11)
|-----------------------------------|
|-----------------------------------|
|-----------------------------------|
|----------8~-------8~-------8~--8~-|
|-88888888-8~--8888-8~--8888-8~--8~-|
|-88888888-8~--8888-8~--8888-8~--8~-|
  ........     ....     ....

(1:15)
|----------------------------------------------|
|----------------------------------------------|
|----------------------------------------------|
|------------------10~-------------------------|
|-1010101010101010-10~--10101010--8--7--5--3v--|
|-1010101010101010-10~--10101010---------------|
  ................      ........


VERSE 1---
Guitar 1:
(1:19)
\"Am I going insane?...
My blood is boiling inside of my...\"
|----------------------------------------------------|
|----------------------------------------------------|
|----------------------------------------------------|
|-----------------------------------3--------2-------|
|-0~--0~--0-0--------0~--0~--0-0-------5--3-----3----|
|-0~--0~--0-0--------0~--0~--0-0-------------------3-|
  .   .   . .        .   .   . .

(1:26)
\"veins...
An evil feeling attacks...
My body\'s shaking, there\'s no turning...\"
|----------------------------------------------------|
|----------------------------------------------------|
|----------------------------------------------------|
|-----------------------------------3--------2-------|
|-0~--0~--0-0--------0~--0~--0-0-------5--3-----3----|
|-0~--0~--0-0--------0~--0~--0-0-------------------3-|
  .   .   . .        .   .   . .

(1:33)
\"back...
So take your eyes off the trigger...
I\'m not to blame if your world turns to...\"
|--------------------------------------------------------|
|--------------------------------------------------------|
|-----------------------------------2b3------------------|
|----------------------------------------3--2--5b7-------|
|-0~--0~--0-0--------0~--0~--0-0--------------------3----|
|-0~--0~--0-0--------0~--0~--0-0-----------------------3-|
  .   .   . .        .   .   . .

(1:40)
\"black...
As your eyes start to blister...
There\'s just no hope for our final em-...\"
|--------------------------------------------------------|
|--------------------------------------------------------|
|-----------------------------------2b3------------------|
|----------------------------------------3--2--5b7-------|
|-0~--0~--0-0--------0~--0~--0-0--------------------3----|
|-0~--0~--0-0--------0~--0~--0-0-----------------------3-|
  .   .   . .        .   .   . .

Guitar 2:
(1:19)
|----------------------------------------------------|
|----------------------------------------------------|
|----------------------------------------------------|
|-----------------------------------3--------2-------|
|-0~--0~--0-0--------0~--0~--0-0-------5--3-----3----|
|-0~--0~--0-0--------0~--0~--0-0-------------------3-|
  .   .   . .        .   .   . .

(1:26)
|----------------------------------------------------|
|----------------------------------------------------|
|----------------------------------------------------|
|-----------------------------------3--------2-------|
|-0~--0~--0-0--------0~--0~--0-0-------5--3-----3----|
|-0~--0~--0-0--------0~--0~--0-0-------------------3-|
  .   .   . .        .   .   . .

(1:33)
|--------------------------------------------------------|
|--------------------------------------------------------|
|--------------------------------------------------------|
|-----------------------------------3b5--------2b3-------|
|-0~--0~--0-0--------0~--0~--0-0---------5--3-------3----|
|-0~--0~--0-0--------0~--0~--0-0-----------------------3-|
  .   .   . .        .   .   . .

(1:40)
|--------------------------------------------------------|
|--------------------------------------------------------|
|--------------------------------------------------------|
|-----------------------------------3b5--------2b3-------|
|-0~--0~--0-0--------0~--0~--0-0---------5--3-------3----|
|-0~--0~--0-0--------0~--0~--0-0-----------------------3-|
  .   .   . .        .   .   . .


PRECHORUS---
Both guitars:
(1:47)
\"brace...
So here we are, I\'m in your head...
I\'M IN YOUR HEART!...\"
|------------------------------------|
|------------------------------------|
|------------------------------------|
|-0~~~~-----\\\\\\\\\\\\\\\\\\\\\\\\\\\\\\\\\\\\\\\\\\\\\\\\-|
|-0~~~~-----\\\\\\LONG-ASS PICKSLIDE\\\\\\-|
|-0~~~~-----\\\\\\\\\\\\\\\\\\\\\\\\\\\\\\\\\\\\\\\\\\\\\\\\-|


CHORUS--- (I think this is played an octave higher... but oh well)
Guitar 1:
(1:54)
[count all OCTAVE notes as TWO strums]
\"You were told to run away...\"
|---------------------------------|
|---------------------------------|
|-7-7-7-7-7-7-7-7-7-7-7-7-7-7-7-7-|
|-x-x-x-x-x-x-x-x-x-x-x-x-x-x-x-x-|
|-5-5-5-5-5-5-5-5-5-5-5-5-5-5-5-5-|
|---------------------------------|

(1:58)
\"Soak the place, and light the flame...\"
|---------------------------------|
|---------------------------------|
|-7-7-7-7-7-7-7-7-7-7-7-7-7-7-5-5-|
|-x-x-x-x-x-x-x-x-x-x-x-x-x-x-x-x-|
|-5-5-5-5-5-5-5-5-5-5-5-5-5-5-3-3-|
|---------------------------------|

(2:01)
\"Pay the price for your betrayal...\"
|---------------------------------|
|---------------------------------|
|-3-3-3-3-3-3-3-3-3-3-3-3-3-3-3-3-|
|-x-x-x-x-x-x-x-x-x-x-x-x-x-x-x-x-|
|-1-1-1-1-1-1-1-1-1-1-1-1-1-1-1-1-|
|---------------------------------|

(2:05)
\"Your betrayal, your betrayal...\"
|---------------------------------------|
|---------------------------------------|
|-5-5-5-5-5-5-5-5-----------------------|
|-x-x-x-x-x-x-x-x------------------12\\\\-|
|-3-3-3-3-3-3-3-3------------------12\\\\-|
|-----------------3-00000-3-00000--12\\\\-|
                  . ..... . .....

(2:09)
\"I was told to stay away...\"
|---------------------------------|
|---------------------------------|
|-7-7-7-7-7-7-7-7-7-7-7-7-7-7-7-7-|
|-x-x-x-x-x-x-x-x-x-x-x-x-x-x-x-x-|
|-5-5-5-5-5-5-5-5-5-5-5-5-5-5-5-5-|
|---------------------------------|

(2:12)
\"Those two words I can\'t obey...\"
|---------------------------------|
|---------------------------------|
|-7-7-7-7-7-7-7-7-7-7-7-7-7-7-5-5-|
|-x-x-x-x-x-x-x-x-x-x-x-x-x-x-x-x-|
|-5-5-5-5-5-5-5-5-5-5-5-5-5-5-3-3-|
|---------------------------------|

(2:16)
\"Pay the price for your betrayal...\"
|---------------------------------|
|---------------------------------|
|-3-3-3-3-3-3-3-3-3-3-3-3-3-3-3-3-|
|-x-x-x-x-x-x-x-x-x-x-x-x-x-x-x-x-|
|-1-1-1-1-1-1-1-1-1-1-1-1-1-1-1-1-|
|---------------------------------|

(2:19)
\"Your betrayal, your betrayal...\"
|------------------------------|
|------------------------------|
|-5-5-5-5-5-5-5-5--------------|
|-x-x-x-x-x-x-x-x--7--5--3--2v-|
|-3-3-3-3-3-3-3-3--------------|
|------------------------------|

Guitar 2:
(1:54)
|-----------------------------------|
|-----------------------------------|
|-----------------------------------|
|----------0~-------0~-------0~--0~-|
|-00000000-0~--0000-0~--0000-0~--0~-|
|-00000000-0~--0000-0~--0000-0~--0~-|
  ........     ....     ....

(1:58)
|-------------------------------------|
|-------------------------------------|
|-------------------------------------|
|----------0~-------0~-------12~--10~-|
|-00000000-0~--0000-0~--0000-12~--10~-|
|-00000000-0~--0000-0~--0000-12~--10~-|
  ........     ....     ....

(2:01)
|-----------------------------------|
|-----------------------------------|
|-----------------------------------|
|----------8~-------8~-------8~--8~-|
|-88888888-8~--8888-8~--8888-8~--8~-|
|-88888888-8~--8888-8~--8888-8~--8~-|
  ........     ....     ....

(2:05)
|-------------------------------------------------------|
|-------------------------------------------------------|
|-------------------------------------------------------|
|------------------10~-----------------------------12\\\\-|
|-1010101010101010-10~--10101010-------------------12\\\\-|
|-1010101010101010-10~--10101010--3-00000-3-00000--12\\\\-|
  ................      ........  . ..... . .....

(2:09)
|-----------------------------------|
|-----------------------------------|
|-----------------------------------|
|----------0~-------0~-------0~--0~-|
|-00000000-0~--0000-0~--0000-0~--0~-|
|-00000000-0~--0000-0~--0000-0~--0~-|
  ........     ....     ....

(2:12)
|-------------------------------------|
|-------------------------------------|
|-------------------------------------|
|----------0~-------0~-------12~--10~-|
|-00000000-0~--0000-0~--0000-12~--10~-|
|-00000000-0~--0000-0~--0000-12~--10~-|
  ........     ....     ....

(2:16)
|-----------------------------------|
|-----------------------------------|
|-----------------------------------|
|----------8~-------8~-------8~--8~-|
|-88888888-8~--8888-8~--8888-8~--8~-|
|-88888888-8~--8888-8~--8888-8~--8~-|
  ........     ....     ....

(2:19)
|----------------------------------------------|
|----------------------------------------------|
|----------------------------------------------|
|------------------10~-------------------------|
|-1010101010101010-10~--10101010--8--7--5--3v--|
|-1010101010101010-10~--10101010---------------|
  ................      ........


VERSE 2---
[repeat VERSE 1]
(2:23-2:51)
\"Is it my turn to die?...
My heart is pounding as I say goodbye...
So now I dance in the flames...
I love you crying and screaming my name...
You said that we?d be forever...
How could you kill me and lie to my face...
Now that we can?t be together...
There?s just no hope for our final embrace...\"


repeat PRECHORUS---
(2:52-2:58)
\"So here we are...
I\'m in your head...
I\'m in your heart...\"


repeat CHORUS---
(2:59-3:27)
\"You were told to run away...
Soak the place and light the flame...
Pay the price for your betrayal...
Your betrayal, your betrayal...
I was told to stay away...
Those two words I can\'t obey...
Pay the price for your betrayal...
Your betrayal, your betrayal...\"


BRIDGE Part 1---
(3:28)
Guitar 1:
|-------------------------------------------------|
|-10----10----10----10----11----11----11----11----|
|----10----10----10----10----10----10----10----10-|
|-------------------------------------------------|
|-------------------------------------------------|
|-------------------------------------------------|

(3:31)
|---------------------------------------------|
|-8----8----8----8----10----10----11-10-------|
|---10---10---10---10----10----10-------12-10-|
|---------------------------------------------|
|---------------------------------------------|
|---------------------------------------------|

(3:35)
|-------------------------------------------------|
|-10----10----10----10----11----11----11----11----|
|----10----10----10----10----10----10----10----10-|
|-------------------------------------------------|
|-------------------------------------------------|
|-------------------------------------------------|

(3:38)                                   \"GO!!!!...\"
|---------------------------------|
|-8----8----8----8----10----10----|
|---10---10---10---10----10----10-|
|---------------------------------|
|---------------------------------|
|---------------------------------|

Guitar 2:
(3:28)
|-------------------------------------------------|
|-------------------------------------------------|
|-------------------------------------------------|
|-0~~~~-------------------------------------------|
|-0~~~~-------------------------------------------|
|-0~~~~-------------------------------------------|

(3:31)
|---------------------------------------------|
|---------------------------------------------|
|---------------------------------------------|
|-~~~~~~~~------------------------------------|
|-~~~~~~~~------------------------3-1-0-1-----|
|-~~~~~~~~------------------------3-1-0-1-----|
                                  . . . .

(3:35)
|-------------------------------------------------|
|-------------------------------------------------|
|-------------------------------------------------|
|-0~~~~-------------------------------------------|
|-0~~~~-------------------------------------------|
|-0~~~~-------------------------------12\\\\--------|

(3:38)                                   \"GO!!!!...\"
|---------------------------------|
|---------------------------------|
|---------------------------------|
|---------------------------------|
|-0-0-0-0-0-0-0-0-0-0-0-0---------|
|-0-0-0-0-0-0-0-0-0-0-0-0---------|
  . . . . . . . . . . . .


BRIDGE Part 2---
Guitar 1:
(3:42)
|-------------------------------------------------|
|-10----10----10----10----11----11----11----11----|
|----10----10----10----10----10----10----10----10-|
|-------------------------------------------------|
|-------------------------------------------------|
|-------------------------------------------------|

(3:45)
|-------------------------------------------|
|-8----8----8----8----10----10----8----8----|
|---10---10---10---10----10----10---10---10-|
|-------------------------------------------|
|-------------------------------------------|
|-------------------------------------------|

(3:49)
|-------------------------------------------------|
|-10----10----10----10----11----11----11----11----|
|----10----10----10----10----10----10----10----10-|
|-------------------------------------------------|
|-------------------------------------------------|
|-------------------------------------------------|

(3:52)
|---------------------------------------------|
|-8----8----8----8----10----10----11-10-------|
|---10---10---10---10----10----10-------12-10-|
|---------------------------------------------|
|---------------------------------------------|
|---------------------------------------------|

(3:56)
|-------------------------------------------------|
|-10----10----10----10----11----11----11----11----|
|----10----10----10----10----10----10----10----10-|
|-------------------------------------------------|
|-------------------------------------------------|
|-------------------------------------------------|

(3:59)
|-------------------------------------------|
|-8----8----8----8----10----10----8----8----|
|---10---10---10---10----10----10---10---10-|
|-------------------------------------------|
|-------------------------------------------|
|-------------------------------------------|

(4:02)
|-------------------------------------------------|
|-10----10----10----10----11----11----11----11----|
|----10----10----10----10----10----10----10----10-|
|-------------------------------------------------|
|-------------------------------------------------|
|-------------------------------------------------|

(4:06)
|---------------------------------------------|
|-8----8----8----8----10----10----11-10-------|
|---10---10---10---10----10----10-------12-10-|
|---------------------------------------------|
|---------------------------------------------|
|---------------------------------------------|

Guitar 2:
(3:42)
|----------------------------|
|----------------------------|
|----------------------------|
|----------------------------|
|-0-0-0~--0-0-0---0~-0-0-0-0-|
|-0-0-0~--0-0-0---0~-0-0-0-0-|
  . . .   . . .   .  . . . .

(3:45)
|----------------------------------|
|----------------------------------|
|----------------------------------|
|----------------------------------|
|-0-0-0~--0-0-0---0-0-0-0~--0~--0~-|
|-0-0-0~--0-0-0---0-0-0-0~--0~--0~-|
  . . .   . . .   . . . .   .   .

(3:49)
|----------------------------|
|----------------------------|
|----------------------------|
|----------------------------|
|-0-0-0~--0-0-0---0~-0-0-0-0-|
|-0-0-0~--0-0-0---0~-0-0-0-0-|
  . . .   . . .   .  . . . .

(3:52)
|-------------------------------|
|-------------------------------|
|-------------------------------|
|-------------------------------|
|-0-0-0--0-0-0--3-1-0-1-8-7-5-1-|
|-0-0-0--0-0-0--3-1-0-1-8-7-5-1-|
  . . .  . . .  . . . . . . . .

(3:56)
|------------------------------|
|------------------------------|
|------------------------------|
|------------------------------|
|-0-0-0~--0-0-0~---0~-0-0-0-0~-|
|-0-0-0~--0-0-0~---0~-0-0-0-0~-|
  . . .   . . .    .  . . . .

(3:59)
|-----------------------------------|
|-----------------------------------|
|-----------------------------------|
|-----------------------------------|
|-0-0-0~--0-0-0~---0-0-0-0~--0~--0~-|
|-0-0-0~--0-0-0~---0-0-0-0~--0~--0~-|
  . . .   . . .    . . . .   .   .

(4:02)
|------------------------------|
|------------------------------|
|------------------------------|
|------------------------------|
|-0-0-0~--0-0-0~---0~-0-0-0-0~-|
|-0-0-0~--0-0-0~---0~-0-0-0-0~-|
  . . .   . . .    .  . . . .

(4:06)
|-------------------------------|
|-------------------------------|
|-------------------------------|
|-------------------------------|
|-0-0-0--0-0-0--3-1-0-1-8-7-5-1-|
|-0-0-0--0-0-0--3-1-0-1-8-7-5-1-|
  . . .  . . .  . . . . . . . .


repeat PRECHORUS--- [but have a lingering effect]
(4:10-4:16)
\"So here we are...
I\'m in your head...
I\'m in your heart...\"


repeat CHORUS---
(4:17-4:45)
\"You were told to run away...
Soak the place and light the flame...
Pay the price for your betrayal...
Your betrayal, your betrayal...
I was told to stay away...
Those two words I can\'t obey...
Pay the price for your betrayal...
Your betrayal, your betrayal...\"


OUTRO---
Both guitars
(4:46)
|-------------------------|
|-------------------------|
|-------------------------|
|-------------------------|
|-000000000--00000--00000-|
|-000000000--00000--00000-|
  .........  .....  .....
Aviso: Este fichero es trabajo propio de su transcriptor y representa su interpretación personal de la canción. El material contenido en esta página es para exclusivo uso privado, por lo que se prohibe su reproducción o retransmisión, así como su uso para fines comerciales.

Califica esta canción


Comentarios en Facebook