Enviado por: matiasrck
Agrandar Letra
Reducir Letra
Imprimir

Acordes:
½ tono
| +0 |
½ tono
||
Volver

Otras Versiones de Paisaje:

Vicentico, Paisaje

Intro

|--------------------------------|
|--5/6-----6-----6-5-------------|
|-------8------------8-6---6-----|
|------------------------9-------|
|------------9-------------------|
|--------------------------------|

|--------------------------------|
|--5/6-----6-----6-5-------------|
|-------8------------8-6---6---7-|
|------------------------9-------|
|------------9-------------------|
|--------------------------------|

Tema

A#m
No debemos de pensar que ahora es diferente
Re#m7
Mil momentos como este quedan en mi mente
Sol#7
No se piensa en el verano cuando cae la nieve
Do#                        Fa7   
Deja que pase un momento y volveremos a querernos.

[lo mismo acá]

Jamas la lógica del mundo nos ha dividido
Ni el futuro tan incierto nos ha preocupado
Una vez los dos pensamos hay que separarse
Más deshicimos las maletas antes de emprender el viaje

Estribillo

A#                                                   Fa       
Tú.. no podrás faltarme cuando falte todo a mi alrededor
Re                                                Solm
Tú.. aire que respiro en aquel paisaje donde vivo yo
Re#                                                 A#   
Tú.. tú me das la fuerza que se necesita para no marcharse                         
  
Tú me das amor...me das amor

[Intro]


No debemos de pensar que ahora es diferente
Mil momentos como este quedan en mi mente
No se piensa en el verano cuando cae la nieve
Deja que pase un momento y volveremos a querernos.
Aviso: Este fichero es trabajo propio de su transcriptor y representa su interpretación personal de la canción. El material contenido en esta página es para exclusivo uso privado, por lo que se prohibe su reproducción o retransmisión, así como su uso para fines comerciales.
comentario del colaborador: Sacada por mí

Califica esta canción


Comentarios en Facebook