Enviado por:
TheDanex

Camila, Dejarte De Amar

Imprimir
Bueno esta Cancion es Facil de Tocar Cuando se le Agarra el Ritmo... los Acordes se pueden tocar en 5 para una Guitarra Electrica, 
con la acustica tambien sueno muy bien. espero q les guste
----------------------------------------------------------------

INTRO: (es con piano en realidad pero con una Guitarra suena Espectacular)


        Dm               A                 Am              G

e|-1---1---1---1---|-0---O---O---0--|-0---0---0---0--|-----0----|
B|-3---3---3---3---|-2---2---2---2--|-1---1---1---1--|-3---3---3|
G|---2---2---2---2-|---2---2---2---2|---2---2---2---2|-0-------0|
D|-0---------------|-2--------------|-2--------------|---0---0--|
A|-----------------|----------------|----------------|-0---0---0|
E|-----------------|----------------|----------------|----------|

         Dm               A                Am               G

e|-----------------|----------------|-----------------|-----0---|
B|-3---3---3---3---|-2---2---2---2--|-1---1---1---1---|-3---3--3|
G|-2---2---2---2---|-2---2---2---2--|-2---2---2---2---|-0------0|
D|---0---0---0---0-|--2---2---2---2-|---2---2---2---2-|---0---0-|
A|-0---------------|-0--------------|-0---------------|---------|
E|-----------------|----------------|-----------------|---------|



SOLO ACORDES (si escuchan bien son acordes en 5) y claro para guitarra electrica

         Dm                 A              C             G


VERSO:


         Dm               A                Am               G

e|-----------------|----------------|-----------------|-----0---|
B|-3---3---3---3---|-2---2---2---2--|-1---1---1---1---|-3---3--3|
G|-2---2---2---2---|-2---2---2---2--|-2---2---2---2---|-0------0|
D|---0---0---0---0-|--2---2---2---2-|---2---2---2---2-|---0---0-|
A|-0---------------|-0--------------|-0---------------|---------|
E|-----------------|----------------|-----------------|---------|
 

   Juras...  que    veras mi co...razón        cayen...do a tierra


         Dm               A                Am               G

e|-----------------|----------------|-----------------|-----0---|
B|-3---3---3---3---|-2---2---2---2--|-1---1---1---1---|-3---3--3|
G|-2---2---2---2---|-2---2---2---2--|-2---2---2---2---|-0------0|
D|---0---0---0---0-|--2---2---2---2-|---2---2---2---2-|---0---0-|
A|-0---------------|-0--------------|-0---------------|---------|
E|-----------------|----------------|-----------------|---------|

  piensas que...    sin ti la so...ledad gano...       la guerra...


Dm                            A
quemaré toda la ciudad, antes de caer no me hundiré jamás,
 C                        G      
no voy a caminar hacia el abismo. 
         A#
no soy el mismo
         A#
no soy el mismo
         A#
no soy el mismo
         A#
no soy el mismo

Coro:

 D                  F#                      Bm
Hoy, me quiero perdonar y curarme con el tiempo
                            A               G               D
Y escapar de aquí, renunciar a ti, aceptar que no fuiste para mí,
                F#                      Bm
quisiera continuar nunca haberte conocido pero aqui estas
              A                                    G
tengo que aceptar que me cuesta cambiar lo que siento
                Dm   C#m  C  G
y dejarte de amar...

Dm            A            C        G
vivo a contra luz y así me voy, desvaneciendo
Dm           A            c          G
Sólo nos quedó dolor flotando en el silencio...
 Dm                           A
quemaré toda la ciudad, antes de caer no me hundiré jamás
     C                       G      
no voy a caminar hacia el abismo.

         A#
no soy el mismo
         A#
no soy el mismo
         A#
no soy el mismo
         A#
no soy el mismo

Coro:

 D                F#                       Bm
Hoy me quiero perdonar y curarme con el tiempo
                            A               G               D
escapar de aquí, renunciar a ti, aceptar que no fuiste para mí,
                F#                      Bm
quisiera continuar nunca haberte conocido pero aquí estas
               A                                 G
Tengo que aceptar que me cuesta cambiar lo que siento
                Dm  A  C  G  Dm  A  C  G Dm  A  C  G
y dejarte de amar...
----------------------------------------------------------------
Espero les Gusten!
Aviso: Este fichero es trabajo propio de su transcriptor y representa su interpretación personal de la canción. El material contenido en esta página es para exclusivo uso privado, por lo que se prohibe su reproducción o retransmisión, así como su uso para fines comerciales.
comentario del colaborador: Fuente: LaCuerda [Con Pequeñas Modificaciones]

Califica esta canción


Comentarios en Facebook