Acordes y tablaturas para guitarra

Acordes y Tablaturas
Usuario: Password:

Buscar:
Acordes y Tablaturas >> Letra J >> Acordes de Joan Sebastian >> Eso Y Mas
Tablatura de Eso Y Mas, Joan Sebastian

Eso Y Mas

Joan Sebastian






-Eso y mas.
-Joan sebastian.

Bueno es muy facil y a mi asi me gusta mas como se escucha.

1|-1/2--0------------5-----------------|
2|-1/2--0--3------3--5--7--5--4--2--2--|
3|---------2----2----------6--5--2--2--|
4|------------4---------------------2--|
5|-------------------------------------|
6|-------------------------------------|

1|-1/2--0-----------0-------|
2|-1/2--0--3------3---2--2--|
3|---------2----2--------2--|
4|------------4----------2--|
5|-----------------------0--|
6|--------------------------|

Aqui se inicia el arpegio que es: (la I marca la cuerda a tocar)

1|-------------I-----------|
2|-------I-----------I-----|
3|----I-----I-----I-----I--|
4|-------------------------|
5|-------------------------|
6|-I-----------------------|

A
Me contaron de Romeo y Julieta y pensé
F#m
que hermoso cuento
        D
y ahora resulta que es mas grande que mas bello esto
 E
esto  que por ti yo siento

       D
Cruzaré los montes, los ríos, los valles,
                 A 
por irte a encontrar                bajo

 Esta parte la saque en guitarra es lo qe le toca al bajo     
1|-----------------------------------------------|
2|-----------------------------------------------|
3|-----------------------------------------------|
4|-----------------------------------------------|
5|-----------------------------------------------|
6|-----2---h4---2---0---2---0--------------------|

       
    D
salvaría tormentas, ciclones, dragones
          A 
sin exagerar.   

4|-----------------------------|
5|-----------------------------|
6|---4--2--0---0---------------|

            D                  E
Por poder mirarme en tus ojos bonitos
            A                   F#m
y vivir la gloria de estar a tu lado
                 Bm             E
porque en mí ya siento que te necesito
             D   A 
que me he enamorado.

             D                  E
Por poder mirarme en tus ojos bonitos
            A                   F#m
y vivir la gloria de estar a tu lado
                  Bm             E
porque en mí ya siento que te necesito
             D
eso y más haré.

1|-1/2--0------------5-----------------|
2|-1/2--0--3------3--5--7--5--4--2--2--|
3|---------2----2----------6--5--2--2--|
4|------------4---------------------2--|
5|-------------------------------------|
6|-------------------------------------|

1|-1/2--0-----------0-------|
2|-1/2--0--3------3---2--2--|
3|---------2----2--------2--|
4|------------4----------2--|
5|-----------------------0--|
6|--------------------------|

          D
Por asegurar la sonrisa de tu alma
             A 
buscando equidad,
              D
yo podría empeñar lo más caro que tengo
                A 
que es mi libertad
             D                   E
y sería un honor ay amor ser tu esclavo
            A                F#m
sería tu juguete por mi voluntad
                Bm                   E
y si un día glorioso en tus brazos acabo
           D
Qué felicidad

              D                   E
Si sería un honor ay amor ser tu esclavo
            A               F#m
sería tu juguete por mi voluntad
                Bm                  E
y si un día glorioso en tus brazos acabo
           D
qué felicidad

1|-1/2--0------------5-----------------|
2|-1/2--0--3------3--5--7--5--4--2--2--|
3|---------2----2----------6--5--2--2--|
4|------------4---------------------2--|
5|-------------------------------------|
6|-------------------------------------|

1|-1/2--0-----------0-------|
2|-1/2--0--3------3---2--2--|
3|---------2----2--------2--|
4|------------4----------2--|
5|-----------------------0--|
6|--------------------------|



 Esta parte la saque en guitarra es lo qe le toca al bajo     
6|-----------------------------------------------|
5|-----------------------------------------------|
4|-----------------------------------------------|
3|-----------------------------------------------|
2|-----------------------------------------------|
1|-----2---h4---2---0---2---0--------------------|

     
6|-----------------------------------------|
5|-----------------------------------------|
4|-----------------------------------------|
3|-----------------------------------------|
2|-----------------------------------------|
1|-----4--2--0---0-------------------------|

Que te parecio? Calificalo con estrellas!!

Rating: 6.2/10 (28 votos)

Este fichero es trabajo propio de su transcriptor y representa su interpretación personal de la canción. El material contenido en esta página es para exclusivo uso privado, por lo que se prohibe su reproducción o retransmisión, así como su uso para fines comerciales.


Comentario de diamond
bien spero les guste solo le hice unos cambios y le agregue como es el arpigeo.
Deja tus comentarios:

Letras de Joan Sebastian
Letras de canciones | Musica Independiente