Acordes y tablaturas para guitarra

Acordes y Tablaturas
Usuario: Password:

Buscar:
Acordes y Tablaturas >> Letra S >> Acordes de Scorpions >> Love Em Or Leave Em
Tablatura de Love Em Or Leave Em, Scorpions

Love Em Or Leave Em

Scorpions






Intro:
e|-----------------------------------------|
B|-----------------------------------------|
G|--------------3v-------------------------| 3 Veses
D|-----1-----------------------------------|
A|--3-----3-5-3----------------------------|
E|-----------------------------------------|

Riff:
e|-----------------------------------------|
B|-----------------------------------------|
G|-----------3-------------1-0-------------| 4 Veses
D|------1-------------1---------3-1--------|
A|--3-3---3-------3-3---3------------------|
E|-----------------------------------------|

Estrofas:
e|---------------|         |---------------|
B|---------------|         |---------------|
G|---------------|         |---------------|
D|--6-x--6--x-x--| 3 Veses |--6-x-6--------|
A|--6-x--6--x-x--|         |--6-x-6--------|
E|--4-x--4--x-x--|         |--4-x-4--------|

Coro:
         Guitarra I
e|-----------------------------------------|
B|-----------------------------------------|
G|--5-5-------8-8--------------------------|
D|--5-5--6-6--8-8--8-8---------------------| 4 Veses
A|--3-3--6-6--6-6--8-8---------------------|
E|-------4-4-------6-6---------------------|
         
         Guitarra II
e|-----------------------------------------|
B|-----------------------------------------|
G|--5--7-8--10-8-10-15-13-12-10-8-7--------| 4 Veses
D|-----------------------------------------|
A|-----------------------------------------|
E|-----------------------------------------|

Que te parecio? Calificalo con estrellas!!

Rating: 6.9/10 (18 votos)

Este fichero es trabajo propio de su transcriptor y representa su interpretación personal de la canción. El material contenido en esta página es para exclusivo uso privado, por lo que se prohibe su reproducción o retransmisión, así como su uso para fines comerciales.


Deja tus comentarios:
Letras de canciones | Musica Independiente