Enviado por:
luizcore

Camila, Besame

[intro Piano]
   G    D       Em     Bm
E|-3-----2-------0--------------
B|--[3]---[3]-----[0]----3------
G|----[0]---[0]------[0]--[4]---[x2] [Luego entra la guitarra]
D|--------------------------[5]-
A|------------------------------
E|-3----------------------------

  G     D       Em     Bm
E|-3-----2-------0----------------------------------
B|--[3]---[3]-----[0]----3---------0-------[0]------
G|----[0]---[0]------[0]--[4]--------[0]--[0]--[0]--
D|--------------------------[5]-----[2]--[2]--[2]---
A|---------------------------------2----------------
E|-3------------------------------------------------
                              |No estoy seguro de esta parte
                                pero aqui la pongo jeje|
[intro Guitarra]
E|-------------------10h12-------------------------
B|-----7h8--10/12----------10h12--8h10--8-7h8------
G|-7/9-----------------------------------------7/9-
D|-------------------------------------------------
A|-------------------------------------------------
E|-------------------------------------------------

[intro piano forma 2] [Las notas son las mism simplement
                        octava alta de la misma]

   G    D    Em   Bm
E|-15---14---12---10---
B|---0----0----0----0--
G|----0----0----0----0-
D|---------------------
A|---------------------
E|-0-------------------

    G  D Em Bm
Bésame
     G  D  Em Bm
ya es tiempo
       G  D Em Bm
sin piedad
        Em
y en silencio
    G  D Em Bm
Bésame
        E--------
        B--------
        G-----9--
        D-7/9----

      G      D   Em  Bm
frena el tiempo
                E------------------
                B------------------
                G---9h7-9/11-11/7--
                D-9----------------
      G  D Em Bm
haz crecer
        Em
lo que siento uuu

[coro]
    Am
Bésame
   Bm
como si el mundo
            Em     D
se acabara despúes
    Am
Bésame
 Bm
y beso a beso
                Em    D
pon el cielo al revés
     Am
Bésame
       Bm
sin razón
        G         D   Em
porque quiere el corazón

     G  D  Em  Bm
Bésame

[intermedio] G   D   Em   Bm

      G  D  Em Bm
Sienteme
       G   D  Em Bm
en el viento
      G   D  Em Bm
mientras yo
       Em
muero lento

     G  D Em Bm
Bésame
     G   D  Em Bm
sin motivos
     G  D Em Bm
y estaré
 Em
siempre contigo.

[coro]
    Am
Bésame
   Bm
como si el mundo
            Em     D
se acabara despúes
    Am
Bésame
 Bm
y beso a beso
                Em    D
pon el cielo al revés
     Am
Bésame
       Bm
sin razón
        G         D   Em
porque quiere el corazón
     G  D  Em  Bm
Bésame

G   D   Em   Bm
             uu Besame

    Am
Bésame
   Bm
como si el mundo
            Em     D
se acabara despúes
    Am
Bésame
 Bm
y beso a beso
                Em    D
pon el cielo al revés
     Am
Bésame
       Bm
sin razón
        G         D   Em
porque quiere el corazón
     G  D  Em  Bm
Bésame

  G              Em
Bésame, asi sin compasión
  G                 Em
quedate en mi sin condición
 Am                 D Aun no estoy seguro si es
dame tan solo un motivo    "D" o "Bm" tocan el que
                            gusten.
            G D Em Bm
y me quedo yo
                E------
                B------
                G----9-
                D-7/9--

            G  D Em  Bm
y me quedo yo
                 E------------
                 B------------
                 G---9h7-9/11-
                 D-9----------

           G  D  Em Bm
y me quedo    yo
              E---------------
              B-12/14--12--10-
              G---------------

            D         Em
y me quedo yo
          E-3h2----------
          B----3---------
          G------2-0-----
          D----------4-2-
          A------------2-
          E------------0-
Aviso: Este fichero es trabajo propio de su transcriptor y representa su interpretación personal de la canción. El material contenido en esta página es para exclusivo uso privado, por lo que se prohibe su reproducción o retransmisión, así como su uso para fines comerciales.

Califica esta canción


Comentarios en Facebook