Acordes y tablaturas para guitarra

Acordes y Tablaturas
Usuario: Password:

Buscar:
Acordes y Tablaturas >> Letra E >> Acordes de Enjambre >> Visita
Acordes de Visita, Enjambre

Visita

Enjambre






am.bm.d.em.g.
El intro lo hace la segunda guitarra y se toca durante
casi todos los versos.

Intro:
    Em     Am     D      Bm
E|----------------------------|
B|----------------------------|
G|--12-12--9--9---11-11--7-7--|
D|--14-14--10-10--12-12--9-9--|
A|--14-14--12-12--12-12--9-9--|
E|----------------------------|

Esto lo hace la 1ra guitarra en la segunda vuelta
 antes de empezar cn la letra

E|-------------------------------------|
B|-------12-12-12-12-12-12-12-12-12-12-|
G|-------------------------------------|

verso
   Em         Am
   Te pido me perdones
E|-7--10--7--8--10--8--|
B|-8--8---8--10-10?10--|
G|---------------------|
        D            Bm
por mis desapariciones
E|----10--12--10--10--12--10--|
B|----10--10--10--12--12--12--|
G|----------------------------|
Em               Am
el no verte por días
E|-7--10--7--8--10--8--|
B|-8--8---8--10-10?10--|
G|---------------------|
      D           Bm
no es lo que tu supones
E|----10--12--10--10--12--10--|
B|----10--10--10--12--12--12--|
G|----------------------------|

   Em                Am
   que no es gusto, no es mi voluntad
B|---------------5---------------------|
G|-4---4-----7---------7--5--4---------|
D|------------------------------7---4--|
     D                Bm
   cree lo que te digo
B|-------------5----------|
G|-4--4----7------5--4----|
D|------------------------|
    Em                Am
   que aunque no me veas yo voy a estar
B|---------------5---------------------|
G|-4-------4--7------7---5--4----------|
D|------------------------------7----4-|
                siempre contigo
E|----------------------------------|
B|-0-0-0-0-1-1-1-1-3-3-3-3-5-5-5-5--|
G|----------------------------------|

G                       Em
La semana me parte en dos
               Bm   D - D
de viernes a domingo
  G                        Em                   Bm   D - D
tu visita me repara cuando nos conecta entonces vivo
G                       Em                      Bm   D - D
quiero que te vengas a vivir, todos los dias conmigo
G                       Em                      Bm   D - D
quiero que te vengas a vivir, todos los dias conmigo

   Em        Am        D           Bm
E|-7--10--7--8--10--8--10--12--10--10--12--10--|
B|-8--8---8--10-10?10--10--10--10--12--12--12--|  X2
G|---------------------------------------------|

En este verso las notas se tocan solo con un rasgueo
      Em               Am
     Es el viernes y su amanecer
B|-12/8 ~------------------------|
G|------------------------------|
       D                 Bm
    no quiero que te asustes

B|-10/7 ~------------------------|
G|------------------------------|
      Em                Am
     al despertar no me vas a ver
B|-12/8 ~------------------------|
G|------------------------------|
       D             Bm
     te ruego no me busques
B|-10/7 ~-------------------12/0-|
G|------------------------------|

  Em           Am
   vive como si estuviera ahí
B|---------5------------------|
G|-4-4--7----7--5--4----------|
D|------------------------7-4-|
  D           Bm
   ya vendra domingo
B|-----------5--------|
G|-4--4---7----5--4---|
D|--------------------|
  Em            Am                  D
   no te olvides nunca de quien fui
B|----------5---------------------|
G|-4--4--7----7---5--4------------|
D|-------------------------7---4--|

E|----------------------------------------------------------------|
B|-0-0-0-0-1-1-1-1-3-3-3-3-5-5-5-5-7-7-7-7-8-8-8-8-10-10-10-10-10-|
G|----------------------------------------------------------------|

E|------------------------------------------------------------|
B|-12-12-12/0-------------------------------------------------|
G|------------------------------------------------------------|

G                       Em
La semana me parte en dos
               Bm   D - D
de viernes a domingo
  G                        Em                   Bm   D - D
tu visita me repara cuando nos conecta entonces vivo
G                       Em                      Bm   D - D
quiero que te vengas a vivir, todos los dias conmigo
G                       Em                      Bm   D - D
quiero que te vengas a vivir, todos los dias conmigo
SOLO

E|--------------------------------------------------------------------
B|--------------------------------------------------------------------
G|--------------------------------------------------------------------
D|---------------------------------9-10-9-7----7-9--9-10-9-7---7-9/12-
A|-2-3-2-0---0-2--2-3-2-0---0-2/5-----------10---------------10-------
E|---------3--------------3-------------------------------------------

E|--------------------------------------------------------------------
B|--------------------------------------------------------------------
G|--------------------------------------------------------------------
D|-9-10-9-7----9-10-9-7----9-10-9-7--9-10-9-7----9-10-9-7----9-10-9-7-
A|----------10----------10--------------------10----------10----------
E|--------------------------------------------------------------------

E|------------------7-------------------10------
B|------------5-5-7--------------7-7-10---------
G|-0~-5-5-7-7------------7-7-9-9----------------
D|----------------------------------------------
A|----------------------------------------------
E|----------------------------------------------

G                       Em
La semana me parte en dos
               Bm   D - D
de viernes a domingo
  G                        Em                   Bm   D - D
tu visita me repara cuando nos conecta entonces vivo
G                       Em                      Bm   D - D
quiero que te vengas a vivir, todos los dias conmigo
G                       Em                      Bm   D - D
quiero que te vengas a vivir, todos los dias conmigo

E|------------------------------------------------------------------
B|------------------------------------------------------------------
G|------------------------------------------------------------------
D|-9-10-9-7----------9-10-9-7----------9-10-9-7-------7/12-12-12-12-
A|----------10-10-10----------10-10-10----------9-9-9---------------
E|------------------------------------------------------------------

E|-----------------------------------------------------------------
B|-----------------------------------------------------------------
G|------------------------------------------------------------------
D|-12-12-12-12--9-10-9-7----------9-10-9-7----------9-10-9-7-------
A|-----------------------10-10-10----------10-10-10----------9-9-9-
E|-----------------------------------------------------------------

E|-----------------------------|
B|-----------------------------|
G|-----------------------------|
D|-7-7-7-7-7-7-7-7-------------|
A|-----------------------------| ESTO SE REPITE HASTA
E|-----------------------------| QUE ACABE LA CANCION

G                       Em                      Bm   D - D
quiero que te vengas a vivir, todos los dias conmigo?

Que te parecio? Calificalo con estrellas!!

Rating: 8.3/10 (50 votos)

Este fichero es trabajo propio de su transcriptor y representa su interpretación personal de la canción. El material contenido en esta página es para exclusivo uso privado, por lo que se prohibe su reproducción o retransmisión, así como su uso para fines comerciales.


Deja tus comentarios:
Letras de canciones | Musica Independiente