Enviado por: manuelyo1
Agrandar Letra
Reducir Letra
Imprimir






Dragonforce, Through The Fire And Flames

Herman Li (Lead Guitar)
     S S S S S S S S S S S S S S S S    S S S S S S S S S S S S S S S S  
E||----------------------------------|--6-------------------------------|
B||--------------------------6-------|------8---9---6---8-------6-------|
G||--5---7---8---5---7---8-------7---|----------------------8-------7---|
D||----5---5---5---5---5---5---5---5-|----5---5---5---5---5---5---5---5-|
A||----------------------------------|----------------------------------|
E||----------------------------------|----------------------------------|
 
 
  S S S S S S S S S S S S S S S S    S S S S S S S S S S S S S S S S  
----------------------------------|--6-------------------------------|
--------------------------6-------|------8---9---6---8-------6-------|
--5---7---8---5---7---8-------7---|----------------------8-------7---|
----5---5---5---5---5---5---5---5-|----5---5---5---5---5---5---5---5-|
----------------------------------|----------------------------------|
----------------------------------|----------------------------------|
 
 
  S S S S S S S S S S S S S S S S    S S S S S S S S S S S S S S S S  
----------------------------------|--6-------------------------------|
--------------------------6-------|------8---9---6---8-------6-------|
--5---7---8---5---7---8-------7---|----------------------8-------7---|
----5---5---5---5---5---5---5---5-|----5---5---5---5---5---5---5---5-|
----------------------------------|----------------------------------|
----------------------------------|----------------------------------|
 
 
  S S S S S S S S S S S S S S S S    S S S S S S S S S S S S S S S S  
----------------------------------|--6-------------------------------|
--------------------------6-------|------8---9---6---8-------6-------|
--5---7---8---5---7---8-------7---|----------------------8-------7---|
----5---5---5---5---5---5---5---5-|----5---5---5---5---5---5---5---5-|
----------------------------------|----------------------------------|
----------------------------------|----------------------------------|
 
 
  S S S S S S S S S S S S S S S S    S S S S S S S S S S S S S S S S  
----------------------------------|--6-------------------------------|
--------------------------6-------|------8---9---6---8-------6-------|
--5---7---8---5---7---8-------7---|----------------------8-------7---|
----5---5---5---5---5---5---5---5-|----5---5---5---5---5---5---5---5-|
----------------------------------|----------------------------------|
----------------------------------|----------------------------------|
 
 
  S S S S S S S S S S S S S S S S    S S S S S S S S S S S S S S S S  
----------------------------------|--6-------------------------------|
--------------------------6-------|------8---9---6---8-------6-------|
--5---7---8---5---7---8-------7---|----------------------8-------7---|
----5---5---5---5---5---5---5---5-|----5---5---5---5---5---5---5---5-|
----------------------------------|----------------------------------|
----------------------------------|----------------------------------|
 
 
  S S S S S S S S S S S S S S S S    S S S S S S S S S S S S S S S S  
----------------------------------|--6-------------------------------|
--------------------------6-------|------8---9---6---8-------6-------|
--5---7---8---5---7---8-------7---|----------------------8-------7---|
----5---5---5---5---5---5---5---5-|----5---5---5---5---5---5---5---5-|
----------------------------------|----------------------------------|
----------------------------------|----------------------------------|
 
 
  S S S S S S S S S S S S S S S S    S S S S S S  S S S  S  S S S S S S  
----------------------------------|--6----------------6h-8p-6-----------|
--------------------------6-------|----8------------8---------8-------8-|
--5---7---8---5---7---8-------7---|------8-5---5h-8-------------8-5-8---|
----5---5---5---5---5---5---5---5-|----------5--------------------------|
----------------------------------|-------------------------------------|
----------------------------------|-------------------------------------|
 
 
   S  S  S  S S S  S  S  S  S S S  S  S S S  
--11-11-11-11-8-8-11-11-11-11-8-8-11-11-8-8-|
--------------------------------------------|
--------------------------------------------|
--------------------------------------------|
--------------------------------------------|
--------------------------------------------|
 
 
   S  S  S  S S S  S  S  S  S S S  S  S S S  
--11-11-11-11-8-8-11-11-11-11-8-8-11-11-8-8-|
--------------------------------------------|
--------------------------------------------|
--------------------------------------------|
--------------------------------------------|
--------------------------------------------|
 
 
   S  S  S  S  S  S  S  S  S  S  S  S  S  S  S  S  
--15-15-15-15-11-11-15-15-15-15-11-11-15-15-11-11-|
--------------------------------------------------|
--------------------------------------------------|
--------------------------------------------------|
--------------------------------------------------|
--------------------------------------------------|
 
 
   S  S  S  S  S  S  S  S  S  S  S  S  S  S  S  S  
--15-15-15-15-11-11-15-15-15-15-11-11-15-15-11-11-|
--------------------------------------------------|
--------------------------------------------------|
--------------------------------------------------|
--------------------------------------------------|
--------------------------------------------------|
 
 
   S  S  S  S S S  S  S  S  S S S  S  S S S  
--13-13-13-13-8-8-13-13-13-13-8-8-13-13-8-8-|
--------------------------------------------|
--------------------------------------------|
--------------------------------------------|
--------------------------------------------|
--------------------------------------------|
 
 
   S  S  S  S S S  S  S  S  S S S  S  S S S  
--13-13-13-13-8-8-13-13-13-13-8-8-13-13-8-8-|
--------------------------------------------|
--------------------------------------------|
--------------------------------------------|
--------------------------------------------|
--------------------------------------------|
 
 
   S  S  S  S S S  S  S  S  S S S  S  S S S  
--11-11-11-11-8-8-11-11-11-11-8-8-11-11-8-8-|
--------------------------------------------|
--------------------------------------------|
--------------------------------------------|
--------------------------------------------|
--------------------------------------------|
 
 
  S  S  S  S  S  S  S  S   E    E    Q      
--8-10-11-13-10-11-13-15-/11--/13--/15~----|
-------------------------------------------|
-------------------------------------------|
-------------------------------------------|
-------------------------------------------|
-------------------------------------------|
 
 
   S  S  S  S S S  S  S  S  S S S  S  S S S  
--11-11-11-11-8-8-11-11-11-11-8-8-11-11-8-8-|
--------------------------------------------|
--------------------------------------------|
--------------------------------------------|
--------------------------------------------|
--------------------------------------------|
 
 
   S  S  S  S S S  S  S  S  S S S  S  S S S  
--11-11-11-11-8-8-11-11-11-11-8-8-11-11-8-8-|
--------------------------------------------|
--------------------------------------------|
--------------------------------------------|
--------------------------------------------|
--------------------------------------------|
 
 
   S  S  S  S  S  S  S  S  S  S  S  S  S  S  S  S  
--15-15-15-15-11-11-15-15-15-15-11-11-15-15-11-11-|
--------------------------------------------------|
--------------------------------------------------|
--------------------------------------------------|
--------------------------------------------------|
--------------------------------------------------|
 
 
   S  S  S  S  S  S  S  S  S  S  S  S  S  S  S  S  
--15-15-15-15-11-11-15-15-15-15-11-11-15-15-11-11-|
--------------------------------------------------|
--------------------------------------------------|
--------------------------------------------------|
--------------------------------------------------|
--------------------------------------------------|
 
 
   S  S  S  S S S  S  S  S  S S S  S  S S S  
--13-13-13-13-8-8-13-13-13-13-8-8-13-13-8-8-|
--------------------------------------------|
--------------------------------------------|
--------------------------------------------|
--------------------------------------------|
--------------------------------------------|
 
 
   S  S  S  S S S  S  S  S  S S S  S  S S S  
--13-13-13-13-8-8-13-13-13-13-8-8-13-13-8-8-|
--------------------------------------------|
--------------------------------------------|
--------------------------------------------|
--------------------------------------------|
--------------------------------------------|
 
 
                                                -\\1                
   S  S S S S S  S S   S  S S S S S  S S        W                  
--11p-8------------8--11p-8------------8-|--<>(16)----------------|
--------9---8-9-11----------9---8-9-11---|------------------------|
----------8-------------------8----------|------------------------|
-----------------------------------------|------------------------|
-----------------------------------------|------------------------|
-----------------------------------------|------------------------|
 
 
  Q    H        Q       W                   Q    H        Q     
---------------------|-------------------|---------------------|
---------------------|-------------------|---------------------|
--5------------------|-------------------|---------------------|
--5------------------|-------------------|--6------------------|
--3------------------|-------------------|--6------------------|
---------------------|-------------------|--4------------------|
 
 
  W                   Q    H        Q       W                 
-------------------|---------------------|-------------------|
-------------------|---------------------|-------------------|
-------------------|--3------------------|-------------------|
-------------------|--3------------------|-------------------|
-------------------|--1------------------|-------------------|
-------------------|---------------------|-------------------|
 
 
  E.  S E.  S E  Q.        Q    H        Q     
------------------------|---------------------|
------------------------|---------------------|
--3-----3-----3--3------|--5------------------|
--3-----3-----3--3------|--5------------------|
--1-----1-----1--1------|--3------------------|
------------------------|---------------------|
 
 
  E  S S S S S S S S S S S S S S    S S S S S S S S E  E  E  E   
---------------------------------|------------------------------|
---------------------------------|------------------------------|
---------------------------------|------------------------3--5--|
--5------------------------------|------------------5--5--3--5--|
--3--3-3-3-3-3-3-3-3-3-3-3-3-3-3-|--3-3-3-3-3-3-3-3-3--3--------|
---------------------------------|------------------------------|
 
 
  E  S S S S S S S S S S S S S S    S S S S S S S S S S S S S S S S  
---------------------------------|----------------------------------|
---------------------------------|----------------------------------|
---------------------------------|----------------------------------|
---------------------------------|----------------------------------|
--6------------------------------|----------------------------------|
--4--4-4-4-4-4-4-4-4-4-4-4-4-4-4-|--4-4-4-4-4-4-4-4-4-4-4-4-4-4-4-4-|
 
 
  E  S S S S E  H           E  S S S S E  H           E  E  E  E  E  E  E  E   
-------------------------|-------------------------|--------------------------|
-------------------------|-------------------------|--------------------------|
-------------3--L--------|-------------3--L--------|--------------------------|
--3----------3--L--------|--3----------3--L--------|--------5-----------5-----|
--1--1-1-1-1-1--L--------|--1--1-1-1-1-1--L--------|--3--3--3--3--3--3--3--3--|
-------------------------|-------------------------|--------------------------|
 
 
  E  Q    E  E  E  E  E     S S S S S S S S S S S S E  E   
-------------------------|--------------------------------|
-------------------------|--------------------------------|
-----5----3--5-----------|--------------------------------|
-----5----3--5-----------|------------------3-3-----3--5--|
--3-------------3--3--3--|--3-3-3-3-6-6-6-6-----6-6-------|
-------------------------|--------------------------------|
 
 
                      PH                                      
  E  E  E  E  E  E    Q       E  S S S S S S S S S S S S S S  
---------------------------|---------------------------------|
---------------------------|---------------------------------|
--3------------------------|---------------------------------|
-----5--3-----3--5--<>5----|---------------------------------|
-----------6---------------|--6------------------------------|
---------------------------|--4--4-4-4-4-4-4-4-4-4-4-4-4-4-4-|
 
 
  S S S S S S S S S S S S S S S S    E  S S E  E  E  E    Q      
----------------------------------|-----------------------------|
----------------------------------|-----------------------------|
----------------------------------|-----------------------------|
----------------------------------|---------------3-----<>3b----|
----------------------------------|--1--1-1-1--1-----1----------|
--4-4-4-4-4-4-4-4-4-4-4-4-4-4-4-4-|-----------------------------|
 
 
  E  S S E  E    E  E    Q        E  S S S S S S S S S S S S S S  
-------------------------------|---------------------------------|
-------------------------------|---------------------------------|
-------------------------------|---------------------------------|
---------------<>3-----<>3b----|--5------------------------------|
--1--1-1-1--1-------1----------|--3--3-3-3-3-3-3-3-3-3-3-3-3-3-3-|
-------------------------------|---------------------------------|
 
 
  E  E.  S E.  S E.  S E     E  E  E  E  E  E  E  E   
--------------------------|--------------------------|
--------------------------|--9--------8--------6-----|
-----5-----5-----5-----5--|-----5--5-----5--5-----5--|
-----5-----5-----5-----5--|--------------------------|
-----3-----3-----3-----3--|--------------------------|
--------------------------|--------------------------|
 
 
                              T    T    T    T    T    T    T    T    
  E  E  E  E  E  E  E  E      S S  S S  S S  S S  S S  S S  S S  S S  
--------------------------|--11-8-11-8-11-8-11-8-11-8-11-8-11-8-11-8-|
--9--------8--------6-----|------------------------------------------|
-----5--5-----5--5-----5--|------------------------------------------|
--------------------------|------------------------------------------|
--------------------------|------------------------------------------|
--------------------------|------------------------------------------|
 
 
   T    T    T    T    T    T    T    T                               
   S S  S S  S S  S S  S S  S S  S S  S S    E  E  E  E  E  E  E  E   
--11-8-11-8-11-8-11-8-11-8-11-8-11-8-11-8-|--------------------------|
------------------------------------------|--9--------8--------6-----|
------------------------------------------|-----8--8-----8--8-----8--|
------------------------------------------|--------------------------|
------------------------------------------|--------------------------|
------------------------------------------|--------------------------|
 
 
  E  E  E  E  E  E  E  E      W                 
--------------------------|--------------------|
--9--------8--------6-----|--11----------------|
-----8--8-----8--8-----8--|--------------------|
--------------------------|--------------------|
--------------------------|--------------------|
--------------------------|--------------------|
 
 
  E    E    E    E    E    E    E    E     W                 
--8S--10S--11S--13S--15S--16S--18S--23--|-------------------|
----------------------------------------|-------------------|
----------------------------------------|--8----------------|
----------------------------------------|--8----------------|
----------------------------------------|--6----------------|
----------------------------------------|-------------------|
 
 
  W                   W                   S S E  S S E  S S E    Q     
-------------------|-------------------|------------------------------|
-------------------|-------------------|------------------------------|
-------------------|-------------------|------------------------------|
--8----------------|--6----------------|-----------------------<>5----|
--8----------------|--6----------------|--6-6-6--6-6-6--6-6-6---------|
--6----------------|--4----------------|--4-4-4--4-4-4--4-4-4---------|
 
 
  E  E  E  E  E  E  E  E     E  E  E  E  E  E    Q     
--------------------------|---------------------------|
--------------------------|---------------------------|
--------------------------|---------------------------|
--5--------5--------5-----|--3--------3--------<>3----|
--3--3--3--3--3--3--3--3--|--1--1--1--1--1--1---------|
--------------------------|---------------------------|
 
 
  E  S S S S S S S S S S S S S S    S S S S S S S S S S S S S S S S  
---------------------------------|----------------------------------|
---------------------------------|----------------------------------|
---------------------------------|----------------------------------|
---------------------------------|----------------------------------|
--6------------------------------|----------------------------------|
--4--4-4-4-4-4-4-4-4-4-4-4-4-4-4-|--4-4-4-4-4-4-4-4-4-4-4-4-4-4-4-4-|
 
 
  W                   W                   E  E  E  E  E  E  E  E   
-------------------|-------------------|--------------------------|
-------------------|-------------------|--8--------6--------8-----|
--5----------------|-------------------|-----8--8-----8--8-----8--|
--5----------------|--6----------------|--------------------------|
--3----------------|--6----------------|--------------------------|
-------------------|--4----------------|--------------------------|
 
 
   W                   S S S S S S S S S S S S S S S S  
--------------------|----------6-6-8-8---------6-6-8-8-|
--11----------------|--6-6-9-9---------6-6-9-9---------|
--------------------|----------------------------------|
--------------------|----------------------------------|
--------------------|----------------------------------|
--------------------|----------------------------------|
 
 
  S S S S S S S S S S S S S S S S    W                      W                  
----------6-6-8-8---------6-6-8-8-|--6----------------|-----------------------|
--6-6-9-9---------6-6-9-9---------|-------------------|-----------------------|
----------------------------------|-------------------|--<>10b----------------|
----------------------------------|-------------------|-----------------------|
----------------------------------|-------------------|-----------------------|
----------------------------------|-------------------|-----------------------|
 
 
  W                   W                   W                   W                 
-------------------|-------------------|-------------------|-------------------|
-------------------|-------------------|-------------------|-------------------|
-------------------|-------------------|--5----------------|--L----------------|
--6----------------|--L----------------|--5----------------|--L----------------|
--6----------------|--L----------------|--3----------------|--L----------------|
--4----------------|--L----------------|-------------------|-------------------|
 
 
  E  S S S S S S S S S S S S S S    S S S S S S S S S S S S S S S S  
---------------------------------|----------------------------------|
---------------------------------|----------------------------------|
---------------------------------|----------------------------------|
--3------------------------------|----------------------------------|
--1--1-1-1-1-1-1-1-1-1-1-1-1-1-1-|--1-1-1-1-1-1-1-1-1-1-1-1-1-1-1-1-|
---------------------------------|----------------------------------|
 
 
  W                   W                   W                   W                 
-------------------|-------------------|-------------------|-------------------|
-------------------|-------------------|-------------------|-------------------|
-------------------|-------------------|-------------------|-------------------|
--5----------------|--L----------------|--6----------------|--L----------------|
--5----------------|--L----------------|--6----------------|--L----------------|
--3----------------|--L----------------|--4----------------|--L----------------|
 
 
  W                   W                   W                 
-------------------|-------------------|-------------------|
-------------------|-------------------|-------------------|
--5----------------|--L----------------|--3----------------|
--5----------------|--L----------------|--3----------------|
--3----------------|--L----------------|--1----------------|
-------------------|-------------------|-------------------|
 
 
                                                             PM PM         
  Q    H        Q       E  Q    E  E  E  E  E     E  Q    E  E  E    Q     
---------------------|-------------------------|-------------------<>6----|
---------------------|--8--8----6--8--6--------|--8--8-------6--8---------|
--3------------------|-------------------8--5--|----------8---------------|
--3------------------|-------------------------|--------------------------|
--1------------------|-------------------------|--------------------------|
---------------------|-------------------------|--------------------------|
 
 
  E  Q    S S S S S S S S S S    E  E   E     H         E   
----------------------6-6-----|--6--8--10--<>11~--------L--|
--8--8----6-6-8-8-9-9-----8-8-|----------------------------|
------------------------------|----------------------------|
------------------------------|----------------------------|
------------------------------|----------------------------|
------------------------------|----------------------------|
 
 
    E  E  E    Q    E  E   E         E   E   E   E  E    E   S   S  E   
--<>6------------------6--11--|--/<>15--11--15--16-----/18--16p-15-----|
-------8----------------------|------------------------------------16--|
----------8--<>8----8---------|----------------------------------------|
------------------------------|----------------------------------------|
------------------------------|----------------------------------------|
------------------------------|----------------------------------------|
 
 
    E   E    E    E   E   E   E    E   
--/23--23s--18S--23--23--18--23s--18--|
--------------------------------------|
--------------------------------------|
--------------------------------------|
--------------------------------------|
--------------------------------------|
 
 
   T     T     T     T     T     T     T          
   S  S  S  S  S  S  S  S  S  S  S  S  S  S   E   
--18-16-18-16-18-16-18-16-18-15-20-16-18-15s-11--|
-------------------------------------------------|
-------------------------------------------------|
-------------------------------------------------|
-------------------------------------------------|
-------------------------------------------------|
 
 
  E  Q    S S S S S S S S S S    E  Q    E   E   E    Q     
------------------------------|----------------------------|
--8--8----6-6-8-8-6-6---------|--8--8----6--/8--/9--/11----|
----------------------8-8-5-5-|----------------------------|
------------------------------|----------------------------|
------------------------------|----------------------------|
------------------------------|----------------------------|
 
 
   T    T    T   T   T   T   T   T                                  
   S S  S S  S S S S S S S S S S S S     E  E   E     H         E   
--11-6-11-6-11-6-8-4-8-4-8-4-6-4-6-4-|--/6--8--10--<>11~--------L--|
-------------------------------------|-----------------------------|
-------------------------------------|-----------------------------|
-------------------------------------|-----------------------------|
-------------------------------------|-----------------------------|
-------------------------------------|-----------------------------|
 
 
  E  Q    S S E  E  E  E     E  Q    S S E   E     Q     
--6--6--------6-----------|--6--6--------6--11--<>11----|
----------8-9----9--8-----|----------8-9----------------|
-----------------------8--|-----------------------------|
--------------------------|-----------------------------|
--------------------------|-----------------------------|
--------------------------|-----------------------------|
 
 
   T     T     T     T     T     T     T     T     
   S  S  S  S  S  S  S  S  S  S  S  S  S  S  S  S  
--23-18-23-18-23-18-23-16-23-18-23-16-23-18-23-18-|
--------------------------------------------------|
--------------------------------------------------|
--------------------------------------------------|
--------------------------------------------------|
--------------------------------------------------|
 
 
    E   S  S   Q      E.    E.    E        Q.      H        E   
--/16--16-16-/18----/16---/15---/10--|--<>15~------------------|
-------------------------------------|-------------------------|
-------------------------------------|-------------------------|
-------------------------------------|-------------------------|
-------------------------------------|-------------------------|
-------------------------------------|-------------------------|
 
 
  W                   Q    E  E  E  E  E  E     E  E  E  E  E  E  E  E   
-------------------|-------------------------|--------------------------|
-------------------|-------------------------|--------------------------|
-------------------|--5----------------------|--------------------------|
-------------------|--5----------------------|--------------------------|
-------------------|--3----3--3--3--3--3--3--|--3--3--3--3--3--3--3--3--|
-------------------|-------------------------|--------------------------|
 
 
  Q    E  E  E  E  E  E     E  E  E  E  E  E  E  E     Q    E  E  E  E  E  E   
-------------------------|--------------------------|-------------------------|
-------------------------|--------------------------|-------------------------|
-------------------------|--------------------------|--3----------------------|
--6----------------------|--------------------------|--3----------------------|
--6----------------------|--------------------------|--1----1--1--1--1--1--1--|
--4----4--4--4--4--4--4--|--4--4--4--4--4--4--4--4--|-------------------------|
 
 
  E  E  E  E  E  E  E  E     Q    H        Q       Q    H        Q     
--------------------------|---------------------|---------------------|
--------------------------|---------------------|---------------------|
--------------------------|--5------------------|--5------------------|
--------------------------|--5------------------|--5------------------|
--1--1--1--1--1--1--1--1--|--3------------------|--3------------------|
--------------------------|---------------------|---------------------|
 
 
  E  S S S S S S S S S S S S S S    S S S S S S S S S S S S S S S S  
---------------------------------|----------------------------------|
---------------------------------|----------------------------------|
---------------------------------|----------------------------------|
--5------------------------------|----------------------------------|
--3--3-3-3-3-3-3-3-3-3-3-3-3-3-3-|--3-3-3-3-3-3-3-3-3-3-3-3-3-3-3-3-|
---------------------------------|----------------------------------|
 
 
  E  S S S S S S S S S S S S S S    S S S S S S S S S S S S S S S S  
---------------------------------|----------------------------------|
---------------------------------|----------------------------------|
---------------------------------|----------------------------------|
---------------------------------|----------------------------------|
--6------------------------------|----------------------------------|
--4--4-4-4-4-4-4-4-4-4-4-4-4-4-4-|--4-4-4-4-4-4-4-4-4-4-4-4-4-4-4-4-|
 
 
  E  S S S S E  H           E  S S S S E  H           E  E  E  E  E  E  E  E   
-------------------------|-------------------------|--------------------------|
-------------------------|-------------------------|--------------------------|
-------------3--L--------|-------------3--L--------|--------------------------|
--3----------3--L--------|--3----------3--L--------|--------5-----------5-----|
--1--1-1-1-1-1--L--------|--1--1-1-1-1-1--L--------|--3--3--3--3--3--3--3--3--|
-------------------------|-------------------------|--------------------------|
 
 
  E  Q    E  E  E  Q       E  E  E  E  E  E  E  E     E  E  E  E  E  E  E  E   
------------------------|--------------------------|--------------------------|
------------------------|--9--------8--------6-----|--9--------8--------6-----|
-----5----3--5-----5----|-----5--5-----5--5-----5--|-----5--5-----5--5-----5--|
-----5----3--5----------|--------------------------|--------------------------|
--3-------------3-------|--------------------------|--------------------------|
------------------------|--------------------------|--------------------------|
 
 
   T    T    T    T    T    T    T    T    
   S S  S S  S S  S S  S S  S S  S S  S S  
--11-8-11-8-11-8-11-8-11-8-11-8-11-8-11-8-|
------------------------------------------|
------------------------------------------|
------------------------------------------|
------------------------------------------|
------------------------------------------|
 
 
   T    T    T    T    T    T    T    T                               
   S S  S S  S S  S S  S S  S S  S S  S S    E  E  E  E  E  E  E  E   
--11-8-11-8-11-8-11-8-11-8-11-8-11-8-11-8-|--------------------------|
------------------------------------------|--9--------8--------6-----|
------------------------------------------|-----8--8-----8--8-----8--|
------------------------------------------|--------------------------|
------------------------------------------|--------------------------|
------------------------------------------|--------------------------|
 
 
  E  E  E  E  E  E  E  E      W                   E.  S Q    Q    Q     
--------------------------|--------------------|-----------------------|
--9--------8--------6-----|--11----------------|-----------------------|
-----8--8-----8--8-----8--|--------------------|--3-----3---------3----|
--------------------------|--------------------|--3-----3----6----3----|
--------------------------|--------------------|--1-----1----6----1----|
--------------------------|--------------------|-------------4---------|
 
 
  W                   W                   W                 
-------------------|-------------------|-------------------|
-------------------|-------------------|-------------------|
--8----------------|-------------------|-------------------|
--8----------------|--8----------------|--6----------------|
--6----------------|--8----------------|--6----------------|
-------------------|--6----------------|--4----------------|
 
 
  S S E  S S E  S S E    Q       E  E  E  E  E  E  E  E   
------------------------------|--------------------------|
------------------------------|--------------------------|
------------------------------|--------------------------|
-----------------------<>5----|--5--------5--------5-----|
--6-6-6--6-6-6--6-6-6---------|--3--3--3--3--3--3--3--3--|
--4-4-4--4-4-4--4-4-4---------|--------------------------|
 
 
  E  E  E  E  E  E    Q       W                   W                 
---------------------------|-------------------|-------------------|
---------------------------|-------------------|-------------------|
---------------------------|-------------------|-------------------|
--3--------3--------<>3----|--6----------------|--L----------------|
--1--1--1--1--1--1---------|--6----------------|--L----------------|
---------------------------|--4----------------|--L----------------|
 
 
  W                   W                   E  E  E  E  E  E  E  E   
-------------------|-------------------|--------------------------|
-------------------|-------------------|--8--------6--------8-----|
--5----------------|-------------------|-----8--8-----8--8-----8--|
--5----------------|--6----------------|--------------------------|
--3----------------|--6----------------|--------------------------|
-------------------|--4----------------|--------------------------|
 
 
  W                   S S S S S S S S S S S S S S S S  
-------------------|----------6-6-8-8---------6-6-8-8-|
-------------------|--6-6-9-9---------6-6-9-9---------|
--8----------------|----------------------------------|
--8----------------|----------------------------------|
--6----------------|----------------------------------|
-------------------|----------------------------------|
 
 
  S S S S S S S S S S S S S S S S    W                   Q    H        Q     
----------6-6-8-8---------6-6-8-8-|--6----------------|---------------------|
--6-6-9-9---------6-6-9-9---------|-------------------|---------------------|
----------------------------------|-------------------|--3------------------|
----------------------------------|-------------------|--3------------------|
----------------------------------|-------------------|--1------------------|
----------------------------------|-------------------|---------------------|
 
 
  W                   W                   W                   W                 
-------------------|-------------------|-------------------|-------------------|
-------------------|-------------------|-------------------|-------------------|
-------------------|-------------------|--5----------------|--L----------------|
--6----------------|--L----------------|--5----------------|--L----------------|
--6----------------|--L----------------|--3----------------|--L----------------|
--4----------------|--L----------------|-------------------|-------------------|
 
 
  E  S S S S S S S S S S S S S S    S S S S S S S S S S S S S S S S  
---------------------------------|----------------------------------|
---------------------------------|----------------------------------|
---------------------------------|----------------------------------|
--3------------------------------|----------------------------------|
--1--1-1-1-1-1-1-1-1-1-1-1-1-1-1-|--1-1-1-1-1-1-1-1-1-1-1-1-1-1-1-1-|
---------------------------------|----------------------------------|
 
 
  W                   W                   W                   W                 
-------------------|-------------------|-------------------|-------------------|
-------------------|-------------------|-------------------|-------------------|
-------------------|-------------------|-------------------|-------------------|
--5----------------|--L----------------|--6----------------|--L----------------|
--5----------------|--L----------------|--6----------------|--L----------------|
--3----------------|--L----------------|--4----------------|--L----------------|
 
 
  W                   W                   W                 
-------------------|-------------------|-------------------|
-------------------|-------------------|-------------------|
--5----------------|--L----------------|--3----------------|
--5----------------|--L----------------|--3----------------|
--3----------------|--L----------------|--1----------------|
-------------------|-------------------|-------------------|
 
 
                                                             PM PM         
  Q    H        Q       E  Q    E  E  E  E  E     E  Q    E  E  E    Q     
---------------------|-------------------------|-------------------<>6----|
---------------------|--8--8----6--8--6--------|--8--8-------6--8---------|
--3------------------|-------------------8--5--|----------8---------------|
--3------------------|-------------------------|--------------------------|
--1------------------|-------------------------|--------------------------|
---------------------|-------------------------|--------------------------|
 
 
   E   E  E   E   E   E   E   E      E   E   E   E  H         
--11--11--L--10--11--13--15--11--|--15--13--11--13--L--------|
---------------------------------|---------------------------|
---------------------------------|---------------------------|
---------------------------------|---------------------------|
---------------------------------|---------------------------|
---------------------------------|---------------------------|
 
 
    E  E  E    Q    E  E   E         E   E   E   E  E    E   S   S  E   
--<>6------------------6--11--|--/<>15--11--15--16-----/18--16p-15-----|
-------8----------------------|------------------------------------16--|
----------8--<>8----8---------|----------------------------------------|
------------------------------|----------------------------------------|
------------------------------|----------------------------------------|
------------------------------|----------------------------------------|
 
 
   E   E  E   E   E  E  E  E     E  E    E  E  H         
--11--11--6--11--11--6--------|--6----------------------|
------------------------9--8--|-----8-------6--L--------|
------------------------------|--------<>8--------------|
------------------------------|-------------------------|
------------------------------|-------------------------|
------------------------------|-------------------------|
 
 
  E  E  E  E  E  E  E  E     E  E  E  E  E  E    Q      
--------------------------|--------------------<>6~----|
-----6--8--6--8--6--------|-----6--8--6--8--9----------|
--------------------8--5--|----------------------------|
--------------------------|----------------------------|
--------------------------|----------------------------|
--------------------------|----------------------------|
 
 
   T    T    T    T    T    T    T    T                                  
   S S  S S  S S  S S  S S  S S  S S  S S     E  E   E     H         E   
--11-6-11-6-11-6--------------------------|--/6--8--10--<>11~--------L--|
-----------------13-9-13-9-13-9-11-8-11-8-|-----------------------------|
------------------------------------------|-----------------------------|
------------------------------------------|-----------------------------|
------------------------------------------|-----------------------------|
------------------------------------------|-----------------------------|
 
 
   E   E  E   S  S  E   E   E   E      E   E  E   S  S  E   E   Q     
--15--15--L--15-13-15--13----------|--15--15--L--13-15-13--15--20----|
---------------------------16--13--|---------------------------------|
-----------------------------------|---------------------------------|
-----------------------------------|---------------------------------|
-----------------------------------|---------------------------------|
-----------------------------------|---------------------------------|
 
 
   S   S  S  S  S   S  S   S  S  S  S   S  S   S  S  S  
--18p-15----15-16p-13-15p-11----11-15p-11-13p-10----10-|
---------16------------------13------------------11----|
-------------------------------------------------------|
-------------------------------------------------------|
-------------------------------------------------------|
-------------------------------------------------------|
 
 
    E   S  S   Q      E.    E.    E        Q.      H        E   
--/16--16-16-/18----/16---/15---/10--|--<>15~------------------|
-------------------------------------|-------------------------|
-------------------------------------|-------------------------|
-------------------------------------|-------------------------|
-------------------------------------|-------------------------|
-------------------------------------|-------------------------|
 
 
  H        Q    Q       Q    H        Q       H        Q    E  E   
---------------------|---------------------|----------------------|
---------------------|---------------------|----------------------|
----------------3----|--5------------------|-------------------3--|
----------------3----|--5------------------|-------------------3--|
----------------1----|--3------------------|-------------------1--|
---------------------|---------------------|----------------------|
 
 
  Q    H        Q       H        Q    Q       Q    H        Q     
---------------------|---------------------|---------------------|
---------------------|---------------------|---------------------|
--5------------------|----------------3----|--5------------------|
--5------------------|----------------3----|--5------------------|
--3------------------|----------------1----|--3------------------|
---------------------|---------------------|---------------------|
 
 
  W                   W                   H.           Q     
-------------------|-------------------|--------------------|
-------------------|-------------------|--------------------|
-------------------|-------------------|---------------3----|
-------------------|--6----------------|--L------------3----|
-------------------|--6----------------|--L------------1----|
-------------------|--4----------------|--L-----------------|
 
 
  Q    H        Q       H        Q    E  E     Q    H        Q     
---------------------|----------------------|---------------------|
---------------------|----------------------|---------------------|
--5------------------|-------------------3--|--5------------------|
--5------------------|-------------------3--|--5------------------|
--3------------------|-------------------1--|--3------------------|
---------------------|----------------------|---------------------|
 
 
  H        Q    Q       Q    H        Q       W                 
---------------------|---------------------|-------------------|
---------------------|---------------------|-------------------|
----------------3----|--5------------------|-------------------|
----------------3----|--5------------------|-------------------|
----------------1----|--3------------------|-------------------|
---------------------|---------------------|-------------------|
 
 
  W                   W                   W                 
-------------------|-------------------|-------------------|
-------------------|-------------------|-------------------|
-------------------|-------------------|-------------------|
--6----------------|--L----------------|--L----------------|
--6----------------|--L----------------|--L----------------|
--4----------------|--L----------------|--L----------------|
 
 
   S   S  S  S  S  S  S   S  S   S  S  S  S  S  S  S  
-----------------------------------------------------|
--11h-13-13-13-13-13-11h-13-16p-13-13-13-13-13-13-13-|
-----------------------------------------------------|
-----------------------------------------------------|
-----------------------------------------------------|
-----------------------------------------------------|
 
 
   S  S  S  S  S  S  S  S  S  S  S  S  S  S  S  S  
--15-15-15-13-13-13-11-11-13-13-13-11-11-11-------|
--------------------------------------------15-15-|
--------------------------------------------------|
--------------------------------------------------|
--------------------------------------------------|
--------------------------------------------------|
 
 
   S   S  S  S  S  S  S   S  S   S  S  S  S  S  S  S  
-----------------------------------------------------|
--11h-13-13-13-13-13-11h-13-16p-13-13-13-13-13-13-13-|
-----------------------------------------------------|
-----------------------------------------------------|
-----------------------------------------------------|
-----------------------------------------------------|
 
 
   S  S  S  S  S  S  S  S  S  S  S  S  S  S  S  S  
--15-15-15-13-13-13-11-11-13-13-13-11-11-11-------|
--------------------------------------------15-15-|
--------------------------------------------------|
--------------------------------------------------|
--------------------------------------------------|
--------------------------------------------------|
 
 
   S   S  S  S  S  S  S   S  S   S  S  S  S  S  S  S  
-----------------------------------------------------|
--11h-13-13-13-13-13-11h-13-16p-13-13-13-13-13-13-13-|
-----------------------------------------------------|
-----------------------------------------------------|
-----------------------------------------------------|
-----------------------------------------------------|
 
 
   S  S  S  S  S  S  S  S  S  S  S  S  S  S  S  S  
--15-15-15-13-13-13-11-11-13-13-13-11-11-11-------|
--------------------------------------------15-15-|
--------------------------------------------------|
--------------------------------------------------|
--------------------------------------------------|
--------------------------------------------------|
 
 
   S   S  S  S  S  S  S   S  S   S  S  S  S  S  S  S  
-----------------------------------------------------|
--11h-13-13-13-13-13-11h-13-16p-13-13-13-13-13-13-13-|
-----------------------------------------------------|
-----------------------------------------------------|
-----------------------------------------------------|
-----------------------------------------------------|
 
 
   S  S  S  S  S  S  S  S  S  S  S  S  S  S  S  S    E   E  E  E  E  E  Q     
--15-15-15-13-13-13-11-11-13-13-13-11-11-11-------|--------------------------|
--------------------------------------------15-15-|--6b--8--L--9--8--6-------|
--------------------------------------------------|---------------------8----|
--------------------------------------------------|--------------------------|
--------------------------------------------------|--------------------------|
--------------------------------------------------|--------------------------|
 
 
  E  E  E  E  S S  S S Q       S  S S  S  S   S  S   S  S   S  S   S S  S S  S  
----------------------------|--6s-8-6s-8-11s-13-11s-13-13s-15-13s-15-6s-8-6s-8-|
--6--6--L--8--6-------------|--------------------------------------------------|
----------------8p-5---5----|--------------------------------------------------|
---------------------8------|--------------------------------------------------|
----------------------------|--------------------------------------------------|
----------------------------|--------------------------------------------------|
 
 
  S S  S  S S S  S  S  S  S S  S S  S    E     E  E  E  S S    E.  E.  E    
--8-8-----------------------8----8-11-<>11--|--8--8--L--6-8-<>11---6-------|
------11-11-6-6-11-11-11-11---11------------|--------------------------8s--|
--------------------------------------------|------------------------------|
--------------------------------------------|------------------------------|
--------------------------------------------|------------------------------|
--------------------------------------------|------------------------------|
 
 
   E.  E.  E  S  S  S  S Q       S S S S S  S  S S S S S S S  S  S S  
------------------------------|--------------------------------------|
--11---8------6h-8p-6h-8------|--8-8-8-6-8-11p-8-6-8-8-8-6-8-11p-8-6-|
-----------8-------------5----|--------------------------------------|
------------------------------|--------------------------------------|
------------------------------|--------------------------------------|
------------------------------|--------------------------------------|
 
 
                             -\\1       
   S  S  S  S  S   S   S  S  H         
--11----11-13-15p-13p-11--------------|
-----11------------------13-----------|
----------------------------15--------|
--------------------------------------|
--------------------------------------|
--------------------------------------|
 
 
   S   S  S  S  S  S  S   S  S   S  S  S  S  S  S  S  
-----------------------------------------------------|
--11h-13-13-13-13-13-11h-13-16p-13-13-13-13-13-13-13-|
-----------------------------------------------------|
-----------------------------------------------------|
-----------------------------------------------------|
-----------------------------------------------------|
 
 
   S  S  S  S  S  S  S  S  S  S  S  S  S  S  S  S  
--15-15-15-13-13-13-11-11-13-13-13-11-11-11-------|
--------------------------------------------15-15-|
--------------------------------------------------|
--------------------------------------------------|
--------------------------------------------------|
--------------------------------------------------|
 
 
   S   S  S  S  S  S  S   S  S   S  S  S  S  S  S  S  
-----------------------------------------------------|
--11h-13-13-13-13-13-11h-13-16p-13-13-13-13-13-13-13-|
-----------------------------------------------------|
-----------------------------------------------------|
-----------------------------------------------------|
-----------------------------------------------------|
 
 
   S  S  S  S  S  S  S  S  S  S  S  S  S  S  S  S  
--15-15-15-13-13-13-11-11-13-13-13-11-11-11-------|
--------------------------------------------15-15-|
--------------------------------------------------|
--------------------------------------------------|
--------------------------------------------------|
--------------------------------------------------|
 
 
   S   S  S  S  S  S  S   S  S   S  S  S  S  S  S  S  
-----------------------------------------------------|
--11h-13-13-13-13-13-11h-13-16p-13-13-13-13-13-13-13-|
-----------------------------------------------------|
-----------------------------------------------------|
-----------------------------------------------------|
-----------------------------------------------------|
 
 
   S  S  S  S  S  S  S  S  S  S  S  S  S  S  S  S  
--15-15-15-13-13-13-11-11-13-13-13-11-11-11-------|
--------------------------------------------15-15-|
--------------------------------------------------|
--------------------------------------------------|
--------------------------------------------------|
--------------------------------------------------|
 
 
   S   S  S  S  S  S  S   S  S   S  S  S  S  S  S  S  
-----------------------------------------------------|
--11h-13-13-13-13-13-11h-13-16p-13-13-13-13-13-13-13-|
-----------------------------------------------------|
-----------------------------------------------------|
-----------------------------------------------------|
-----------------------------------------------------|
 
 
   S  S  S  S  S  S  S  S  S  S  S  S  S  S  S  S  
--15-15-15-13-13-13-11-11-13-13-13-11-11-11-------|
--------------------------------------------15-15-|
--------------------------------------------------|
--------------------------------------------------|
--------------------------------------------------|
--------------------------------------------------|
 
 
  S S S S   E  S S E  E  E    E     E.  E.  E    H          
---------------------------------|-------------------------|
---------------------------------|-------------------------|
--5-5-5-5-<>8--5-5-7--------<>7--|-------------<>7b--------|
----------------------8--5-------|--5---6---8--------------|
---------------------------------|-------------------------|
---------------------------------|-------------------------|
 
 
  S S S S S S S S S S S S S S S S    S S S S S S S S S S S S   Q      
----------------------------------|--------------------------<>6~----|
--------------------------9-8-6-8-|------------6-8-9-8-6-8-9---------|
------5-7-8-7-5-7-5---7-8---------|--5---5-7-8-----------------------|
--7-8---------------8-------------|----8-----------------------------|
----------------------------------|----------------------------------|
----------------------------------|----------------------------------|
 
 
  E.    E.  E  E.    E.  E     S   S S   S  Q     S  S  S  Q    S  
------<>6-------------------|--------------13----13-11-10-11------|
--8---------8--6---<>8---6--|-------------------------------------|
----------------------------|--8s-10-8s-10------------------------|
----------------------------|-------------------------------------|
----------------------------|-------------------------------------|
----------------------------|-------------------------------------|
 
 
   S  S  S  S S S  S S S S S S S S S S    S S S S S S S S S S S S S  S S  S  
--13----15----8---10-------------------|--------------------------8-11-8-11-|
-----13----13---8----8-9-6-------------|------------------6---6-8-----------|
---------------------------8-5-8---5---|------5---5-8-5-8---8---------------|
---------------------------------8---8-|--5-8---8---------------------------|
---------------------------------------|------------------------------------|
---------------------------------------|------------------------------------|
 
 
   E   S  S  E   E   E   E   E   E      E   S  S  E   E   E   E   Q     
--15--15-15-15--13--------------13--|--15--15-15-15--13------18--15----|
--------------------16--13--16------|--------------------16------------|
------------------------------------|----------------------------------|
------------------------------------|----------------------------------|
------------------------------------|----------------------------------|
------------------------------------|----------------------------------|
 
 
   E   S  S  E   E   E   E   E   E   
--15--15-15-15--13--------------13--|
--------------------16--13--16------|
------------------------------------|
------------------------------------|
------------------------------------|
------------------------------------|
 
 
   S   S   S  S  S  S  S  S  S   S  S  S    Q     
--13h-15p-13----------13-15-18p-15----15-<>15----|
-------------16-13-16--------------18------------|
-------------------------------------------------|
-------------------------------------------------|
-------------------------------------------------|
-------------------------------------------------|
 
 
   E   S  S  E   E   E   E   E   E      E   S  S  E   E   E   E   Q     
--15--15-15-15--13--------------13--|--15--15-15-15--13------18--15----|
--------------------16--13--16------|--------------------16------------|
------------------------------------|----------------------------------|
------------------------------------|----------------------------------|
------------------------------------|----------------------------------|
------------------------------------|----------------------------------|
 
 
   E   S  S  E   E   E   E   E   E   
--15--15-15-15--13--------------13--|
--------------------16--13--16------|
------------------------------------|
------------------------------------|
------------------------------------|
------------------------------------|
 
 
   S   S  S  S  S  S  S   S E   E   E   E   
--15p-13----------13-15p-13-8--11--13--15--|
---------16-13-16--------------------------|
----------------------------5---8--10--12--|
-------------------------------------------|
-------------------------------------------|
-------------------------------------------|
 
 
                                              Pac-man sound     
   S   S  S  S  S  S  S   S  E   E   E  E     W                 
--15p-13----------13--------15--13--11--8--|-------------------|
---------16-13-16----16p-13----------------|-------------------|
----------------------------12--10---8--5--|-------------------|
-------------------------------------------|-------------------|
-------------------------------------------|-------------------|
-------------------------------------------|-------------------|
 
 
   S  S  S  S  S  S  S  S  S  S  S  S  S  S  S  S  
--------------------------------------------------|
--------------------------------------------------|
--------------------------------------12----12-13-|
--13-12----12----------------12-13-15----15-------|
--------15----15-11----11-15----------------------|
--------------------15----------------------------|
 
 
   S  S  S  S  S. S. S  S  S  S  S  Q       
-------------------------------------------|
--------13----13-15-16-15-16-18-16-18b~----|
--12-13----15------------------------------|
-------------------------------------------|
-------------------------------------------|
-------------------------------------------|
 
 
   S  S  S  S  S  S  S  S  S  S  S  S  S  S  S  S  
--13----------------------13----13-15-13-15-16----|
-----16-15-13----13-15-16----16----------------18-|
--------------13----------------------------------|
--------------------------------------------------|
--------------------------------------------------|
--------------------------------------------------|
 
 
   S  S  S  S  S  S  S  S  H           
--16-15-18-15-------------18b~--------|
--------------18-16-15-16-------------|
--------------------------------------|
--------------------------------------|
--------------------------------------|
--------------------------------------|
 
 
                                             W  W  
   S  S  S  S  S  S  S  S  S  S  S  S  S  S  S  S  
--20-18-20-16-20-15-13-------------13-15-16-18-18-|
-----------------------16-15-13-15----------------|
--------------------------------------------------|
--------------------------------------------------|
--------------------------------------------------|
--------------------------------------------------|
 
 
   S  S  S  S  S  S  S  S  S  S  S  S  Q      
--18-16-18-15-18-13----------------13-16~----|
--------------------16-15-13-15-16-----------|
---------------------------------------------|
---------------------------------------------|
---------------------------------------------|
---------------------------------------------|
 
 
   S  S  S  S  S  S  S  S  S  S  S  S  S  S  S  S  
--------13----13-15-13----13----------------------|
--13-16----16----------16----16-15-16-15-13-------|
--------------------------------------------15-12-|
--------------------------------------------------|
--------------------------------------------------|
--------------------------------------------------|
 
 
   S  S  S  S  S  S  S  S  S  S  S  S  S  S  S  S  
--------------------------------------------------|
--------------------------------------------13-15-|
--13-15-13-12----------------------12-13-15-------|
--------------15-13-12----12-13-15----------------|
-----------------------15-------------------------|
--------------------------------------------------|
 
 
   Q     E    Q     E   E   E      E    E   E    E   E    E    Q     
--20----18S--23----18--20--18--|--20S--18--15S--13-----------/15----|
-------------------------------|--------------------13S--11---------|
-------------------------------|------------------------------------|
-------------------------------|------------------------------------|
-------------------------------|------------------------------------|
-------------------------------|------------------------------------|
 
 
   E   E   E    E   E   E    Q           E     E   E   E   E    E   Q     
--22--22s--6--/23--22--20s--18----|--/<>13--<>13--\\1--15--13s--20--20----|
----------------------------------|--------------------------------------|
----------------------------------|--------------------------------------|
----------------------------------|--------------------------------------|
----------------------------------|--------------------------------------|
----------------------------------|--------------------------------------|
 
 
      (Octave pedal/Harmonizer)                                                 
      W                        W    W    W    W  W  W   W    W    W    W    W   
      S                        S    S    S    S  S  S   S    S    S    S    S   
------------------------------------------------15-20s-15-----------------------
-------------------------------------------<>16-----------<>16----------------<>
--------------------------------------<>17---------------------<>17------<>17---
---------------------------------<>17-------------------------------<>17--------
--/<>15---------------------<>18------------------------------------------------
--------------------------------------------------------------------------------
 
 
    W  W   W  W   W    W    W    W    W  T    W    W    T      
    S  S   S  S   S    S    S    S    S  S    S    S    Q      
---------/15-20s-15---------------------20-----------<>20~----|
------16------------<>16------<>16--------------<>16----------|
--/17--------------------<>17------<>17----<>17---------------|
--------------------------------------------------------------|
--------------------------------------------------------------|
--------------------------------------------------------------|
 
 
     T         T         T                   T         T         T              
     S    S    S    S    S    S    S    S    S    S    S    S    S    S    S    
--<>20-<>15-<>20-<>15-<>20-<>15-<>13-<>15-<>20-<>15-<>20-<>15-<>20-<>15-<>13-<>1
--------------------------------------------------------------------------------
--------------------------------------------------------------------------------
--------------------------------------------------------------------------------
--------------------------------------------------------------------------------
--------------------------------------------------------------------------------
 
 
                                             tap bend     
     T         T         T                          T     
     S    S    S    S    S    S    S    S    Q      Q     
--<>20-<>15-<>20-<>15-<>20-<>15-<>13-<>15-<>17b-----L----|
---------------------------------------------------------|
---------------------------------------------------------|
---------------------------------------------------------|
---------------------------------------------------------|
---------------------------------------------------------|
 
 
   S. S. S  S  S  S  S  S  S  S  S  S  S  S  S      E   Q     E   E   E   Q     
-----------------------------------10-12-13-15-|--/18--18----20--18------------|
-----------------------------11-13-------------|---------------------20--16----|
-----------------10-12-10-12-------------------|-------------------------------|
-----------10-12-------------------------------|-------------------------------|
--10-11-13-------------------------------------|-------------------------------|
-----------------------------------------------|-------------------------------|
 
 
   T        T        T        T        T        T        T        T        
   |--3--|  |--3--|  |--3--|  |--3--|  |--3--|  |--3--|  |--3--|  |--3--|  
   S  S  S  S  S  S  S  S  S  S  S  S  S  S  S  S  S  S  S  S  S  S  S  S  
--20-15-11-20-11-15-20-15-11-20-11-15-20-15-11-20-11-15-20-15-11-20-11-15-|
--------------------------------------------------------------------------|
--------------------------------------------------------------------------|
--------------------------------------------------------------------------|
--------------------------------------------------------------------------|
--------------------------------------------------------------------------|
 
 
   S  S  S  S  E   E    E    E   E   E   
--20-20-20-20-18--15s--18s--15------15--|
--------------------------------18------|
----------------------------------------|
----------------------------------------|
----------------------------------------|
----------------------------------------|
 
 
   T     T     T     T     T     T     T     T     T     T     T     T     T    
   T  T  T  T  T  T  T  T  T  T  T  T  T  T  T  T  T  T  T  T  T  T  T  T  T  T 
--20-11-20-11-18-11-18-11-20-11-20-11-16-11-16-11-20-11-20-11-18-11-18-11-20-11-
--------------------------------------------------------------------------------
--------------------------------------------------------------------------------
--------------------------------------------------------------------------------
--------------------------------------------------------------------------------
---------------------------------------------------------------------
Aviso: Este fichero es trabajo propio de su transcriptor y representa su interpretación personal de la canción. El material contenido en esta página es para exclusivo uso privado, por lo que se prohibe su reproducción o retransmisión, así como su uso para fines comerciales.

Califica esta canción


Comentarios en Facebook