Acordes y tablaturas para guitarra

Acordes y Tablaturas
Usuario: Password:

Buscar:
Acordes y Tablaturas >> Letra R >> Acordes de Richard Clayderman >> Balada Para Adelina
Acordes de Balada Para Adelina, Richard Clayderman

Balada Para Adelina

Richard Clayderman






Esta canción Esta Chida Aver Quien La Logra tocar  

Intro:
e|-------------------------------------0-------0-------0-------0-----|
B|-----1-3-----1-3-----1-3-----1-3-------1-------1-------1-------1---|
G|---0-------0-------0-------0-------0-------0-------0-------0-------|
D|-------------------------------------------------------------------|
A|-3-------3-------3-------3-------3-------3-------3-------3---------|
E|-------------------------------------------------------------------| 
Verse 1:
e|-0---0---------0---1-1---1-------1-1-1-1-1-1h3---------------------|
B|-1---1---1-----1-----1---1---1---1-1-1-1-1-1-----------------------|
G|-0-0---0-----0---0---2-2---2---------------------------------------|
D|---------------------0---------0-----------------------------------|
A|-3---------3-------------------------------------------------------|
E|-------------------------------------------------------------------| 
e|-3---3---------3---5-0---0---0---0---------------------------------|
B|-0---0---0-----0---------------------------------------------------|
G|-0-0---0-----0---0-----0---0---0---0-------------------------------|
D|-------------------------------------------------------------------|
A|---------------------3---------------------------------------------|
E|-3---------3-------------------------------------------------------| 
e|-0---0-------0-0-0-0-0-0h1-1---1-------1-1-1-1-1-1h3---------------|
B|-1---1---1---1-1-1-1-1-1---1---1---1---1-1-1-1-1-1-----------------|
G|-0-0---0-------------------2-2---2---------------------------------|
D|---------------------------0---------0-----------------------------|
A|-3---------3-------------------------------------------------------|
E|-------------------------------------------------------------------| 
e|-3---3---------3---5-0---------------------------------------------|
B|-0---0---0-----0---------1---------1-------------------------------|
G|-0-0---0-----0---0-----0---0-----0---------------------------------|
D|-------------------------------2-------2---0-----------------------|
A|---------------------3-------3-------3---2-------------------------|
E|-3---------3-------------------------------------------------------| 
Chorus 1:
e|-----12---10---8--------7---5---3---5---3\1-1----------------------|
B|-----10---10---10-------8---7---5----------------------------------|
G|---9----9----9----9---0---0---0---0---5-4\2-2----------------------|
D|------------------------------------3------------------------------|
A|-0-----------------------------------------------------------------|
E|--------------------0----------------------------------------------| 
e|-0-----------------------------------------------------------------|
B|-----1---------3-------1-------------------------------------------|
G|---0---0-----0-------0---------------------------------------------|
D|-----------0-------2-------2---0-----------------------------------|
A|-3-------2-------3-------3---2-------------------------------------|
E|-------------------------------------------------------------------| 
e|-----0-------------------------------------------------------------|
B|-----1---3---1-------0-------------------------0-------0-----------|
G|---2-----2---2-------0---2---0---2---0-0-----0-------0-------------|
D|-------2---2---2---2-----2---2---3-3-------3-------3---------------|
A|-0---------------------2---2---2-3-------2-------2-----------------|
E|-----------------0---------------1---------------------------------| 

e|---------------------------------------3-------3-------------------|
B|-----------------------3-------3-----6-------6---------------------|
G|-------0-------0-----0-------0-----4-------4-----------------------|
D|-----3-------3-----3-------3-----5-------5-------------------------|
A|---5-------5-------------------------------------------------------|
E|-3-------3-------3-------3-----------------------------------------|
e|--------10--------10-------15-------15--------15--------15---------|
B|------8---------8--------0--------0--------18--------18------------|
G|---10--------10--------0--------0--------0---------0---------------|
D|-9---------9---------0--------0--------0---------0-----------------|
A|-------------------------------------------------------------------|
E|-------------------------------------------------------------------| 
Verse 2:
e|-12---12---------12---13-13----13---------13-13-13-13-13-13/15-----|
B|-8----8----8-----8-------10----10----10---10-10-10-10-10-10--------|
G|-9--9----9-----9----9----10-10----10-------------------------------|
D|-------------------------0--------------0--------------------------|
A|-------------------------------------------------------------------|
E|-8-----------8-----------------------------------------------------| 
e|-15----15------------15----17-12---15-11-------13----------3-------|
B|-12----12----12------12------------------11-------13---------3-----|
G|-12-12----12------12----12-------0----------12-------14-10-----4---|
D|-0--------------0------------------------------------------------5-|
A|-------------------------------------------------------------------|
E|------------------------------8------------------------------------| 
e|-12---12-------12-12-12-12-12-12/13--------------------------------|
B|-8----8----8---8--8--8--8--8--8------------------------------------|
G|-9--9----9---------------------------------------------------------|
D|-------------------------------------------------------------------|
A|-------------------------------------------------------------------|
E|-8-----------8-----------------------------------------------------| 
e|-13----13---------13-13-13-13-13-13/15-----------------------------|
B|-10----10----10---10-10-10-10-10-10--------------------------------|
G|-10-10----10-------------------------------------------------------|
D|-0--------------0--------------------------------------------------|
A|-------------------------------------------------------------------|
E|-------------------------------------------------------------------| 
e|-15----15------------15----17-12-------0---0-3---------------------|
B|-12----12----12------12------------3-1-----------------------------|
G|-12-12----12------12----12-------0-------0-------------------------|
D|-0--------------0--------------------------------------------------|
A|---------------------------------------3---2-----------------------|
E|------------------------------8------------------------------------| 
Chorus 2:
e|-----12---10---8--------7---5---3---5---3\1-1----------------------|
B|-----10---10---10-------8---7---5---------------5p3----------------|
G|---9----9----9----9---0---0---0---0---5-4\2-2-------5--------------|
D|------------------------------------3-----------------5---2---0----|
A|-0--------------------------------------------3---------3---3------|
E|--------------------0----------------------------------------------| 
e|-----0-------------------------------------------------------------|
B|-----1---3---1-------0-------------------------0-------0-----------|
G|---2-----2---2-------0---2---0---2---0-0-----0-------0-------------|
D|-------2---2---2---2-----2---2---3-3-------3-------3---------------|
A|-0---------------------2---2---2-3-------2-------2-----------------|
E|-----------------0---------------1---------------------------------| 
e|---------------------------------------3-------3-------------------|
B|-----------------------3-------3-----6-------6---------------------|
G|-------0-------0-----0-------0-----4-------4-----------------------|
D|-----3-------3-----3-------3-----5-------5-------------------------|
A|---5-------5-------------------------------------------------------|
E|-3-------3-------3-------3-----------------------------------------| 
e|--------10--------10-------15-------15--------15--------15---------|
B|------8---------8--------0--------0--------18--------18------------|
G|---10--------10--------0--------0--------0---------0---------------|
D|-9---------9---------0--------0--------0---------0-----------------|
A|-------------------------------------------------------------------|
E|-------------------------------------------------------------------| 
Verse 3:
e|-12---12---------12---13-13----13---------13-13-13-13-13-13/15-----|
B|-8----8----8-----8-------10----10----10---10-10-10-10-10-10--------|
G|-9--9----9-----9----9----10-10----10-------------------------------|
D|-------------------------0--------------0--------------------------|
A|-------------------------------------------------------------------|
E|-8-----------8-----------------------------------------------------| 
e|-15----15------------15----17-12------------11-----------------3---|
B|-12----12----12------12------------------11------------8-----3-----|
G|-12-12----12------12----12-------0----12------------10-----4-------|
D|-0--------------0--------------------------------10------5---------|
A|-----------------------------------------------9-------------------|
E|------------------------------8----11------------------------------|
e|-12---12-------12-12-12-12-12-12/13--------------------------------|
B|-8----8----8---8--8--8--8--8--8------------------------------------|
G|-9--9----9---------------------------------------------------------|
D|-------------------------------------------------------------------|
A|-------------------------------------------------------------------|
E|-8-----------8-----------------------------------------------------| 
e|-13----13---------13-13-13-13-13-13/15-----------------------------|
B|-10----10----10---10-10-10-10-10-10--------------------------------|
G|-10-10----10-------------------------------------------------------|
D|-0--------------0--------------------------------------------------|
A|-------------------------------------------------------------------|
E|-------------------------------------------------------------------| 
e|-15----15------------15----17-12-----0-1-----1-3---5---------------|
B|-12----12----12------12------------1-------1-----------------------|
G|-12-12----12------12----12-------0-------2-------4-----------------|
D|-0--------------0----------------------3-------5-------------------|
A|-------------------------------------------------------------------|
E|------------------------------8------------------------------------| 
Outro:
e|-12---12-------12-12-12-12-12-12/13--------------------------------|
B|-8----8----8---8--8--8--8--8--8------------------------------------|
G|-9--9----9---------------------------------------------------------|
D|-------------------------------------------------------------------|
A|-------------------------------------------------------------------|
E|-8-----------8-----------------------------------------------------| 
e|-13----13---------13-13-13-13-13-13/15-----------------------------|
B|-10----10----10---10-10-10-10-10-10--------------------------------|
G|-10-10----10-------------------------------------------------------|
D|-0--------------0--------------------------------------------------|
A|-------------------------------------------------------------------|
E|-------------------------------------------------------------------| 
e|-15----15------------15----17-------------------10-15----17--------|
B|-12----12----12------12--------------12------10----12--------------|
G|-12-12----12------12----12--------12------10-------12-12-----------|
D|-0--------------0---------------9-------0----------0---------------|
A|-------------------------------------------------------------------|
E|------------------------------0------------------------------------| 
e|-------------------10-15----17-8-----------------------------------|
B|--------12------10----12-------8-----------------------------------|
G|-----12------10-------12-12----9-----------------------------------|
D|---9-------0----------0--------10----------------------------------|
A|-------------------------------10----------------------------------|
E|-0-----------------------------8-----------------------------------| 
| /  slide up
| \  slide down
| h  hammer-on
| p  pull-off
| ~  vibrato
| +  harmonic
| x  Mute note

Que te parecio? Calificalo con estrellas!!

Rating: 7.1/10 (66 votos)

Este fichero es trabajo propio de su transcriptor y representa su interpretación personal de la canción. El material contenido en esta página es para exclusivo uso privado, por lo que se prohibe su reproducción o retransmisión, así como su uso para fines comerciales.


Deja tus comentarios:
Letras de canciones | Musica Independiente