Enviado por:
Danielfmp

La Ley, Mentira

La ley - Mentira

Am ? C/G - G         Am- C/G - G

E-0---0------------------------------------------------
B-1---1------------------------------------------------
G-2---2---------------5-5---7b9-7-7--5-4-4-------------
D-2---------------5h7-----------------------5--2-------
A-0-----------5h7--------------------------------------
E------------------------------------------------------

E------------------------------------------------------
B------------------------------------------------------
G------------------------------------------------------
D-----------------5h7--5-5-----------------------------
A-------------5h7----------5h7--5-3--5b7---------------
E------------------------------------------------------

Ahí está el intro y los acordes acompañantes.

Am
Mentira mi vida
   C/G          G 
Lo que se da y no se mira
Am          
Mentira fundida
    C/G            G
Con miel que evaporó mi piel

Am
Mentira prohibida
   C/G         G
Debilidad que me domina
Am
Mentira vivida
   C/G            G 
No quiero más mentirte
G
Amor
          B7         
Solamente encontré
A               B7  
El necio precio de volverte

Am
Mentira vendida
   C/G        G 
Moralidad que me intoxica
Am
Mentiras fundidas
    C/G         G          Am
Flagelo que mi corazón no olvida mentira.
     C/G         G  
Las tentaciones destructivas
Am
Mentira medida
   C/G            G
No quiero más mentirte

G
Amor
          B7 
Solamente me perdí
    A         B7
Regreso para devolverte

C/G B7  Am    B7     C/G  B7     Em 
Mi corazón late por ti dentro de mí
C/G B7  Am    B7    C/G   B7  Em
Mi corazón nunca dejó tu corazón

Am
Mentira servida
   C/G            G
El vino y pan de cada día
Am
Mentira atrevida
   C/G        G
Bulero de mi corazón
Am
Amarga saliva 
  C/G           G
Sabor a culpa y agonía
Am
Mentira divina
    C/G          G
No quiero más mentirte 
G
Amor
          B7
Solamente encontré
   A             B7            Am
El necio precio de volverme a ver

[Am ? C/G - G  4 Círculos]

G	
Amor
          B7
Solamente encontré
    A            B7
El necio precio de devolverte
C/G B7  Am    B7     C/G  B7     Em 
Mi corazón late por ti dentro de mí [Y siempre busco la verdad]
C/G B7  Am    B7    C/G   B7  Em
Mi corazón nunca dejó tu corazón
C/G B7  Am    B7    C/G   B7     Em
Mi corazón late por ti dentro de mí [Y busco siempre la verdad]
C/G B7  Am    B7    C/G   B7    Em
Mi corazón nunca se fue?
Aviso: Este fichero es trabajo propio de su transcriptor y representa su interpretación personal de la canción. El material contenido en esta página es para exclusivo uso privado, por lo que se prohibe su reproducción o retransmisión, así como su uso para fines comerciales.

Califica esta canción


Comentarios en Facebook