Enviado por:
10r1yagami

Camila, De Mi

F     F#m   C#m   F#m      B   C#m
e|-----------4------1------2----4--|
B|------2---5-----2---2---4----5---|
G|-----2---6-----2---2---4----6----|
D|----4---6-----4-------4----6-----|
A|---4---4-----4-------2----4------|
E|--2---------2--------------------|
C#m                                             F#m
nunca había sentido algo así La vida me mantuvo siempre en paz
B                                      E                Llegaste a abrir las puertas del dolor Y a regalar la soledad 
C#m                            F#m
Tú piel enveneno mi corazón dejándome en completo oscuridad 
B                                        E
Y asi en lugar de olvidarte yo te fui queriendo mucho mas 
F#m                 C#m                         E  
Y ahora estas aquí viéndome sufrir dime como debó hacer para 
                  B
Olvidarme de tus besos y sacarte para siempre  
F#m        C#m   F#m      C#m                                  de mi?  de mi   de mi?  de mi 
C#m                                F#m
Lo supe en el momento en que te vi Quererte y dolerme de verdad
B                              E
Pero volví a mirarte comprendí Quería contigo asta el final
 F#m               C#m                          E               
Y ahora estas aquí viéndome sufrir dime como debó hacer para 
                 B  
olvidarme de tus besos y borrar tu nombre  
F#m     C#m    F#m   C#m
De mi? de mi? de mi? de mi? 
B                    E                           F#m  
Intente alejarme no pensarte mas no pensarte mas me dolió 
                C#m  
Entregarme como nuca lo hice jamás
B|--------------------------------------------------------|
G|--------------------------------------------------4-4/6-|
D|----4-4-2-4-4/6--4-6-7-6-4-6-2---------4/5-4-4-6-7------|
A|---4---------------------------4-2-4--4-----------------|
E|--2---------------------------2------2------------------|

B|---------------4/5-4---4-5-7-9--|
G|-4-6-8-9-8-4-4------4-4---------|seguido de esto entra C#m
D|------------6--------6----------|
[pausa y entra]
F#m     C#m  
De mi? de mi? [x2]
F#m-C#m[x4]
  

Y ESO ES TODO JEJE
Aviso: Este fichero es trabajo propio de su transcriptor y representa su interpretación personal de la canción. El material contenido en esta página es para exclusivo uso privado, por lo que se prohibe su reproducción o retransmisión, así como su uso para fines comerciales.

Califica esta canción


Comentarios en Facebook