Acordes y tablaturas para guitarra

Acordes y Tablaturas
Usuario: Password:

Buscar:
Acordes y Tablaturas >> Letra A >> Acordes de Aventura >> El Perdedor
Tablatura de El Perdedor, Aventura

El Perdedor

Aventura






Intro:
La cuarta cuerda y la primera cuerda se tocan al 
mismo tiempo..solo al final del intro que es la 4ta y la 2da

e--13--12--9---5--1--0--------
B-----------------------3-----
G-----------------------------
D--15--14--11--7--3--2--0-----
A-----------------------------
E-----------------------------

 **Desde Aqui Capo en el 3er Trasto**

"Hay un dicho...
no se sabe lo que se tiene, hasta que se pierde."


         REm LA#               DO
Te vi llorar, viviste la monotonía
                 REm
y te escuchaba hablar
LA#                        DO
 pero era el quien te entendía
                REm      LA#
y me robo ese tesoro de duende
                       DO
y ahora comprendo el valor
                      REm           LA#
que no se tapan los defectos con pretextos
                    DO
en cambio siento rencor.


        FA                      DO
Ay ve y dile que lo odio y lo detesto
                     LA#
por tener lo que fue mio
                        DO
que el culpable he sido yo.

    FA                     DO
Que hoy lo considero un enemigo
                 LA#                        DO
lamentando mi perdida en la batalla por tu amor.

  FA                       DO
Recálcale que no duermo de noche
                     LA#                     DO
imaginando que en el sexo el te devora con pasión.

   REm
Me falta valentía
         DO                            LA#
para admitirle que a tu lado fui un chiquillo
                 DO
y su hombría supero.

   REm                   DO
Agrégale que hoy yo me rebelo
             LA#                   DO
envidioso egoísta impulsivo sin control.

      FA
Por creer que yo era el único
      DO
que tu amarias, que estúpido
  LA#                   DO
fulano con el premio, y yo el perdedor.


Esto se toca 7 veces en general

e--10-12-10-13-15-12-13-10-12-10-----------
B--------------------------------15-13-----
G------------------------------------------
D------------------------------------------
A------------------------------------------
E------------------------------------------

cuando vas terminado esto, osea vas tocandolo 6 veces 
y te falta una la tocas asi:

e--10-12-10-13-15-12-13-10-12-10-------17--
B--------------------------------15-13-----
G------------------------------------------
D------------------------------------------
A------------------------------------------
E------------------------------------------

         REm LA#                   DO
Lo vi llegar y no pense que importaría
                       REm
y te empezaba a conquistar
LA#                     DO
convirtiendoté en MI enemiga
                REm      LA#
y me robo ese tesoro de duende
                       DO
y ahora comprendo el valor
                      REm           LA#
que no se tapan los defectos con pretextos
                    DO
en cambio siento rencor.

        FA                      DO
Ay ve y dile que lo odio y lo detesto
                     LA#
por tener lo que fue mio
                        DO
que el culpable he sido yo.

    FA                     DO
Que hoy lo considero un enemigo
                 LA#                        DO
lamentando mi perdida en la batalla por tu amor.

  FA                       DO
Recálcale que no duermo de noche
                     LA#                     DO
imaginando que en el sexo el te devora con pasión.

   REm
Me falta valentía
         DO                            LA#
para admitirle que a tu lado fui un chiquillo
                 DO
y su hombría supero.

   REm                   DO
Agrégale que hoy yo me rebelo
             LA#                   DO
envidioso egoísta impulsivo sin control.

      FA
Por creer que yo era el único
      DO
que tu amarias, que estúpido
  LA#                   DO
fulano con el premio, y yo el perdedor.

En el solo Que viene van a hacer lo mismo :

Esto se toca 7 veces :

e--10-12-10-13-15-12-13-10-12-10---------
B--------------------------------15-13-----
G--------------------
D--------------------
A--------------------
E--------------------

cuando vas terminado esto, osea vas tocandolo 6 veces 
y te falta una la tocas asi :

e--10-12-10-13-15-12-13-10-12-10-------17--
B--------------------------------15-13-----
G------------------------------------------
D------------------------------------------
A------------------------------------------
E------------------------------------------

                ***FIN***
Cualquier duda mi correo [email protected]
NOTA: la parte de los acordes las tome de lacuerda.net pero las
tabs yo las hice.

Que te parecio? Calificalo con estrellas!!

Rating: 7.1/10 (48 votos)

Este fichero es trabajo propio de su transcriptor y representa su interpretación personal de la canción. El material contenido en esta página es para exclusivo uso privado, por lo que se prohibe su reproducción o retransmisión, así como su uso para fines comerciales.


Deja tus comentarios:
Letras de canciones | Musica Independiente