Acordes y tablaturas para guitarra

Acordes y Tablaturas
Usuario: Password:

Buscar:
Acordes y Tablaturas >> Letra J >> Acordes de Jason Mraz >> Im Yours
Tablatura de Im Yours, Jason Mraz

Im Yours

Jason Mraz






Capo on 4 frt




  Intro



            G      G      G                D      D      D               Em     Em    Em                                                       

|-3/5--3--3-3-3--3-3-3--3-3-3----3/5--2--2-2-2--2-2-2--2-2-2-----------0-0-0--0-0-0--0-0-0------------0-0-0--0-0-0--0-0-0--|
|-3/5--3--3-3-3--3-3-3--3-3-3----3/5--3--3-3-3--3-3-3--3-3-3---3/5--0--0-0-0--0-0-0--0-0-0---0-0h1----1-1-1--1-1-1--1-1-1--| x2
|---------0-0-0--0-0-0--0-0-0---------2--2-2-2--2-2-2--2-2-2--------0--0-0-0--0-0-0--0-0-0------------0-0-0--0-0-0--0-0-0--|
|---------0-0-0--0-0-0--0-0-0------------0-0-0--0-0-0--0-0-0-----------2-2-2--2-2-2--2-2-2------------2-2-2--2-2-2--2-2-2--|
|--------------------------------------------------------------------------------------------------------------------------|
|--------------------------------------------------------------------------------------------------------------------------|


Verse (Voice tab)

       G                               D                               Em                C                   

|-----------------------------------|-------------------------------|----------------------------------------|
|--------0----------------------0---|-------------------------------|-------------------------1-0------------|
|-----------0--0--0---0-0-0--2------|-----4------------------0--2---|--4-4--2h0--------------------0-0-------|
|-----------------------------------|---4---4--4--4---4-4-4---------|------------2---2-2-0-------------------|
|-----------------------------------|-------------------------------|----------------------------------------|
|-----------------------------------|-------------------------------|----------------------------------------|
|-----------------------------------|-------------------------------|----------------------------------------|
WELL YOU DONE DONE ME AND YOU BET     I TRIED TO BE CHILL BUT YOURE    I FELL RIGHT THROUGH THE CRACKS       
                     I FELT IT                SO HOT THAT I MELTED     AND NOW IM TRYING TO GET BACK          
 



    G                                  D                               Em                C                        

|-----------------------------------|-------------------------------|----------------------------------------|
|--------0----------------------0---|-------------------------------|---------------------------1-0----------|
|-----0-----0--0--0---0-0-0--2------|-----4------------------0--2---|--4-4-4-0--2h0--------------------0-0---|
|-----------------------------------|---4---4--4--4---4-4-4---------|---------------2---2-2-0----------------|
|-----------------------------------|-------------------------------|----------------------------------------|
|-----------------------------------|-------------------------------|----------------------------------------|
|-----------------------------------|-------------------------------|----------------------------------------|
  BEFORE THE COOL DONE RUN OUT       NOTHINGS GOING TO STOP ME BUT     I RECKON ITS AGAIN MY TURN TO WIN SOME
  ILL BE GIVING IT MY BESTEST                  DIVINE INTERVENTION                              OR LEARN SOME 

 


  CHORUS



   G            D               Em               C                      
|-----------------------------------------------------------------|
|--------------------------------------------------1--0-----------|
|--0--4--0------4--2----------2---------------------------0-0-----|
|-----------0----------4--0------2---5--2--5----------------------|
|----------------------------------------------3------------------|
|-----------------------------------------------------------------|
  I WONT HESITATE NO MORE, NO MORE  IT CANNOT WAIT, IM YOURS
                                    



BRIDGE



            G      G      G                D      D      D               Em     Em    Em                                                       

|-3/5--3--3-3-3--3-3-3--3-3-3----3/5--2--2-2-2--2-2-2--2-2-2-----------0-0-0--0-0-0--0-0-0------------0-0-0--0-0-0--0-0-0--|
|-3/5--3--3-3-3--3-3-3--3-3-3----3/5--3--3-3-3--3-3-3--3-3-3---3/5--0--0-0-0--0-0-0--0-0-0---0-0h1----1-1-1--1-1-1--1-1-1--|
|---------0-0-0--0-0-0--0-0-0---------2--2-2-2--2-2-2--2-2-2--------0--0-0-0--0-0-0--0-0-0------------0-0-0--0-0-0--0-0-0--|
|---------0-0-0--0-0-0--0-0-0------------0-0-0--0-0-0--0-0-0-----------2-2-2--2-2-2--2-2-2------------2-2-2--2-2-2--2-2-2--|
|--------------------------------------------------------------------------------------------------------------------------|
|--------------------------------------------------------------------------------------------------------------------------|




    VERSE 2

G                          D                            Em                             C                       

|----------------------------|--------------------------------|-------------------------------------|
|---------------------0-3----|---3-3--3-3-3-3--5--0---0-------|---0-0-0--3-0--0-0-----0-----1-0--0--|
|---0-0--0-0-0-0--0--2-------|----------------------2---------|--------------------2-----0----------|
|----------------------------|--------------------------------|-------------------------------------|
|----------------------------|--------------------------------|-------------------------------------|
|----------------------------|--------------------------------|-------------------------------------|
WELL OPEN UP YOUR MIND AND    OPEN UP YOUR PLANS AND DAMN      LOOK INTO YOUR HEART AND YOULL FIND   
               SEE LIKE ME                     YOURE FREE                             LOVE LOVE LOVE





G                          D                        Em                                      C                                
|----------------------------|----------------------|-------------------------------------------------|
|----------------------0--3--|--3-3-3--5--0-----0---|--0-3-0--0-0-0-0-----0-------1-0-0---------------|
|--0-0-0-0-0-0-0-0--2--------|---------------2------|------------------2-----0-----------0-----2~~~---|
|----------------------------|----------------------|---------------------------------------0---------|
|----------------------------|----------------------|-------------------------------------------------|
|----------------------------|----------------------|-------------------------------------------------|
 LISTEN TO THE MUSIC OF THE   I LOVE PEACEFUL MELODY    ITS YOUR GOD-FORSAKEN RIGHT TO BE LOVED LOVE
 MOMENT MAYBE SING WITH ME                                                       LOVED LOVED LOVED




  SECOND CHORUS



   G            D               Em               C                      

|-----------------------------------------------------------------|
|--------------------------------------------------1--0-----------|
|--0--4--0------4--2----------2---------------------------0-0-----|
|-----------0----------4--0------2---5--2--5----------------------|
|----------------------------------------------3------------------|
|-----------------------------------------------------------------|
  I WONT HESITATE NO MORE, NO MORE  IT CANNOT WAIT, IM sURE


   G            D               Em               C                      

|-----------------------------------------------------------------|
|--------------------------------------------------1--0-----------|         
|--0--4--0------4--2----------2---------------------------0-0-----|         
|-----------0----------4--0------2---5--2--5----------------------|          
|----------------------------------------------3------------------|          
|-----------------------------------------------------------------|             
 THERES NO NEED TO COMPLICATE OUR TIME IS SHORT THIS IS OUR FATE, IM YOURS






Here you play that chords:

G     D      Em       C



3 VERSE

G                                  D                                Em                          C
|-----------------------------------|-----------------------------------|-------------------------------------|
|-----0--------------------------0--|-----------------------------------|---------------------------1-0-------|
|---0----0--0--0---0-0-0-0-0--2-----|-------4----------------------0--2-|---0--4--0-0--0-----------------0-0--|
|-----------------------------------|-----4---4--4--4---4-4-4-4-4-------|-----------------2---2-0-0-----------|
|-----------------------------------|-----------------------------------|-------------------------------------|
|-----------------------------------|-----------------------------------|-------------------------------------|
 IVE BEEN SPENDING WAY TOO LONG       AND BENDING OVER BACKWARDS JUST      MY BREATH FOGGED UP THE GLASS           
 CHECKING MY TONGUE IN THE MIRROR           TO TRY TO SEE IT CLEARER       AND SO I DREW A NEW FACE AND LAUGHED   




|-----------------------------------|-----------------------------------|-------------------------------------|
|-----0--------------------------0--|-----------------------------------|---------------------------1-0-------|
|---0----0--0--0---0-0-0-0-0--2-----|-------4----------------------0--2-|---0--4--0-0--0-----------------0-0--|
|-----------------------------------|-----4---4--4--4---4-4-4-4-4-------|-----------------2---2-0-0-----------|
|-----------------------------------|-----------------------------------|-------------------------------------|
|-----------------------------------|-----------------------------------|-------------------------------------|
  I GUESS WHAT IMA SAYING IS THERE    TO RID YOURSELF OF VANITY AND JUST     ITS WHAT WE AIM TO DO                          
        AINT NO BETTER REASON                     GO WITH THE SEASONS            OUR NAME IS OUR VIRTUE        






CHORUS 3

   G            D               Em               C                      

|-----------------------------------------------------------------|
|--------------------------------------------------1--0-----------|
|--0--4--0------4--2----------2---------------------------0-0-----|
|-----------0----------4--0------2---5--2--5----------------------|
|----------------------------------------------3------------------|
|-----------------------------------------------------------------|
  I WONT HESITATE NO MORE, NO MORE  IT CANNOT WAIT, IM sURE


   G            D               Em               C                                     x3                      

|-----------------------------------------------------------------|
|--------------------------------------------------1--0-----------|         
|--0--4--0------4--2----------2---------------------------0-0-----|               
|-----------0----------4--0------2---5--2--5----------------------|           
|----------------------------------------------3------------------|          
|-----------------------------------------------------------------|             
 THERES NO NEED TO COMPLICATE OUR TIME IS SHORT THIS IS OUR FATE, IM YOURS

Que te parecio? Calificalo con estrellas!!

Rating: 7.1/10 (50 votos)

Este fichero es trabajo propio de su transcriptor y representa su interpretación personal de la canción. El material contenido en esta página es para exclusivo uso privado, por lo que se prohibe su reproducción o retransmisión, así como su uso para fines comerciales.


Deja tus comentarios:
Letras de canciones | Musica Independiente