Enviado por:
arcangel11

Reik, Noviembre Sin Ti

E:-1-0-----------0----------.
B: -----3-1--1/3--3---------.          
G: -------------------------.         X2
D: -------------------------.
A: -------------------------.
D: -------------------------.


E: ---0/0/0/0-------------------------------------------------------.
B: --------------3/3/3/3----1/1/1/1--3/1-0--------------------------.
G: -0----------0----------0----------------0?2/2/2/2---0/0/0/0----0-. 
D: ---------------------------------------------------2--------3/2--.       X2
A: -----------------------------------------------------------------.
D: -----------------------------------------------------------------.



E: ---0--1----0/1?0--------0-0-0-0-------0-0-0-------------.
B: --3-------3-----3-1---3---------3-1-3-------3-----------.
G: -2-----2------------------------------------------------.
D: ----------------------------------------- --------------.        X2
A: --------------------------------------------------------.
D: --------------------------------------------------------.


E: ---0/0-0-0-------------5-3------------------------------.
B: -----------1/1--3/3-3--------0-1/1-1-1?3/1---0/0---0----.
G: -0-----------------------------------------------2---0--.        X2
D: --------------------------------------------------------.
A: --------------------------------------------------------.
D: --------------------------------------------------------.


E: --------------------------------------.
B: ----0/0---0---------1-----------------.
G: --------2---0---2-2---2----0-0--------.        
D: -------------------------2------------.
A: --------------------------------------.
D: --------------------------------------.
Aviso: Este fichero es trabajo propio de su transcriptor y representa su interpretación personal de la canción. El material contenido en esta página es para exclusivo uso privado, por lo que se prohibe su reproducción o retransmisión, así como su uso para fines comerciales.

Califica esta canción


Comentarios en Facebook