Enviado por: Mcstope
Agrandar Letra
Reducir Letra
Imprimir


Otras Versiones de He Barrido El Sol:




Los Tres, He Barrido El Sol

Intro:

(Sol) M - (Re) 7 - (Solm)-(Re7)-(Mim)-(Sim)-(Dom)- (Mi7) - (Lam) (Re7) (Solm)

(Solm)          (Re7)
He barrido el Sol 
De este lugar
(Solm)         (Re7)
Arrastré el calor
Del basural
(Mim)        (Sim)  (Dom)  (Mi7)  
Que brillaba sobre tí
(La) M      (Re) 7    (Solm)
No sé si fue tan así

Con mi voz de plata
Haré temblar
Romper los cristales
Llorar, esperar
Y en tu cama brillará
El sol que no volverá

(Do) M      (Sim)
No es tan fácil
Mim
Ser feliz
(Dom)         (Sim)         (Rem)
Cuando opcacaste el barniz
Que pintaste verde, azul y gris
---------------------0----------------
---------------------0--------------
---------------------0-------------------
---------------------2-----------------
---3-3-3---3-3-3-2---2----------------
-1-------1-----------0----------------
Que quitaste a espaldas de mí
---------------------0----------------
---------------------0--------------
---------------------0-------------------
---------------------2-----------------
---3-3-3---3-3-3-2---2----------------
-1-------1-----------0------------

Que pintaste verde [2x todo]
Solo

(Solm)          (Re7)
He barrido el Sol 
De este lugar
(Solm)         (Re7)
Arrastré el calor
Del basural
(Mim)        (Sim)  (Dom)  (Mi7)  
Que brillaba sobre tí
(La) M      (Re) 7    (Solm)
No sé si fue tan así
Aviso: Este fichero es trabajo propio de su transcriptor y representa su interpretación personal de la canción. El material contenido en esta página es para exclusivo uso privado, por lo que se prohibe su reproducción o retransmisión, así como su uso para fines comerciales.
comentario del colaborador: Busquen la intro y el solo en otra parter yo les doy los acordes ok!

Califica esta canción


Comentarios en Facebook