Enviado por:
AxLRose

Camila, Besame

Intro:

e|-----------17--16--14--12-------------17--16--14--12----------|
B|--------------------------------------------------------------|
G|--------------------------------------------------------------|

e|--------------------------------------------------------------|
B|--------------------------------------------------------------|
G|-----------14--13--11--9--------------14--13--11--------------|


e|-----------------------12/14----------------------------------|
B|------------------------------12/14--9/11--10-9-10------------|
G|-----9/11--14-16-16/18------------------------------9/11------|
Aviso: Este fichero es trabajo propio de su transcriptor y representa su interpretación personal de la canción. El material contenido en esta página es para exclusivo uso privado, por lo que se prohibe su reproducción o retransmisión, así como su uso para fines comerciales.

Califica esta canción


Comentarios en Facebook