Enviado por:
AxLRose

Camila, Mientes

Intro: [Usar capo en el segundo traste]


e|---------------------4----------------------------------------|
B|------------------2-------2-----------------------------------|
G|------------5----------5-----------3--------------------------|
D|------------6----------------------4--------------------------|
A|------------6----------------------4--------------------------|
E|--------------------------------------------------------------|


e|---------------------4----------------------------------------|
B|------------------2-------2-----------------------------------|
G|------------5----------5-----------3--------------------------|
D|------------6----------------------4--------------------------|
A|------------6----------------------4--------------------------|
E|--------------------------------------------------------------|


e|---------------------4----------------------------------------|
B|------------------2-------2-----------------------------------|
G|------------5----------5-----------3-----5-----6--------------|
D|------------6----------------------4-----6-----7--------------|
A|------------6----------------------4-----6-----7--------------|
E|--------------------------------------------------------------|
Aviso: Este fichero es trabajo propio de su transcriptor y representa su interpretación personal de la canción. El material contenido en esta página es para exclusivo uso privado, por lo que se prohibe su reproducción o retransmisión, así como su uso para fines comerciales.

Califica esta canción


Comentarios en Facebook