Enviado por: Marianoo27
Agrandar Letra
Reducir Letra
Imprimir


Otras Versiones de Antes Y Despues:

Ciro Y Los Persas, Antes Y Despues

e. ------------------------------------------------------------...
B. ----------------------1---------------------------2---3---2-...
G. --4---2---1---1---2-------4---2---1---1---2---4-------------...
D. ------------------------------------------------------------...
A. ------------------------------------------------------------...
E. ------------------------------------------------------------...

e. ---------------------------------------------------
B. ---------------------------------------------------
G. --4---2---1---1---2---1----------------------------
D. --------------------------4---0---2----------------
A. --------------------------------------4---0--------
E. ----------------------------------------------0----
Aviso: Este fichero es trabajo propio de su transcriptor y representa su interpretación personal de la canción. El material contenido en esta página es para exclusivo uso privado, por lo que se prohibe su reproducción o retransmisión, así como su uso para fines comerciales.

Califica esta canción


Comentarios en Facebook