Enviado por:
YesBacter

Los Bunkers, Quien Fuera

Imprimir
La                      Fa#m
Estoy buscando una palabra
e|-5-4--------------------------|
B|-----7-5---5------------------|
G|---------6--------------------|
D|-------------7··--------------|
A|------------------------------|
E|------------------------------|
La                      Fa#m
en el umbral de tu misterio.
e|-5-4--------------------------|
B|-----7-5---5------------------|
G|---------6--------------------|
D|-------------7··--------------|
A|------------------------------|
E|------------------------------|
¿Quién fuera Ali Babà?
Sim            Sim7         Do#m
¿Quién fuera el mìtico Simbad?
                         Re
¿Quién fuera un poderoso sortilegio?
Mi                    LA 
¿Quién fuera encantador?
e|-------2--------------2-----------------|
B|-----5------5--------5-----5------------|
G|-2-4----2-4---2··-2-4--2-4---2----------|
D|----------------------------------------|
A|----------------------------------------|
E|----------------------------------------|
La                         Fa#m
Estoy buscando una escafandra,
La                         Fa#m
al pie del mar de los delirios.
Re
¿Quién fuera Jacques Cosusteaun?
Sim          Sim7          Do#m
¿Quién fuera Nemo el capitén?
                              Re
¿Quién fuera el batiscafo de tu abismo?
Mi                    LA 
¿Quién fuera explorador?


La                    Fa#m
Corazón, corazón obscuro,
La                    Fa#m
corazón, corazón con muros,
Re
corazón que se esconde,
Sim
corazón que está dónde,
Do#m                  Re
corazón, corazón en fuga,
Mi                   LA 
herido de dudas de amor.
   La   -  Fa#m         -Fa#m- La    -  Fa#m -           Fa#m
e|-----2---------------------------2----------------------------|
B|----5--5------------------------5---5-------------------------|
G|--24--24-2--------------------24--24-2·-----------------------|
D|--------------------------------------------------------------|
A|-0-----------020245420242-0---0------------020245420242-0-----|E|----------202------------2-2------------202------------2-2----|

   Re  -  Sim    -  Do#m -     Re-Mi    - La 
e|-----2--------2--------24··2442·454-2-2---------|
B|----5--5-----5--5-----5--------------5-5--------|
G|--24--24-2-24-24-2·-24------------------2··-----|
D|------------------------------------------------|
A|-5--------2--------4--------------------0-------|
E|------------------------------------------------|


La                 Fa#m
Estoy Buscando melodía
La                Fa#m
para tener como llamarte
Re
¿Quién fuera ruiseñor?
Sim             Sim7      Do#m
¿Quién fuera Lennon y McCrtney,
                             Re
Sindo Garay, Violeta, Chico Bauarque?
Mi                    LA 
¿Quién fuera tu trovador?


La                    Fa#m
Corazón, corazón obscuro,
e|-5-4--------------------------|
B|-----7-5---5------------------|
G|---------6--------------------|
D|-------------7··--------------|
A|------------------------------|
E|------------------------------|
La                    Fa#m
corazón, corazón con muros,
e|-5-4--------------------------|
B|-----7-5---5------------------|
G|---------6--------------------|
D|-------------7··--------------|
A|------------------------------|
E|------------------------------|
Re
corazón que se esconde,
Sim
corazón que está dónde,
Do#m                  Re
corazón, corazón en fuga,
Mi                   LA 
herido de dudas de amor.


La                    Fa#m
Corazón, corazón obscuro,
e|-----2----------------------------|
B|----5--5--------------------------|
G|--24--24-2------------------------|
D|----------------------------------|
A|-0-----------020245420242-0-------|
E|----------202------------2-2------|
La                    Fa#m
corazón, corazón con muros,
e|-----2----------------------------|
B|----5--5--------------------------|
G|--24--24-2------------------------|
D|----------------------------------|
A|-0-----------020245420242-0-------|
E|----------202------------2-2------|

Re          Sim        Do#m
corazóoooooooooooooooooooon
e|-----2--------2--------24··2442·454-2-2----------|
B|----5--5-----5--5-----5--------------5-5---------|
G|--24--24-2-24-24-2·-24------------------2··------|
D|-------------------------------------------------|
A|-5--------2--------4-----------------------0···--|
E|-------------------------------------------------|

Re - Mi - La 
e|------------------------------------------|
B|------------5-----------------------------|
G|-----2--4---------------------------------|
D|------------------------------------------|
A|------------------------------------------|
E|------------------------------------------|


<3 Dedikada a mi novia Sarahhi (:
Aviso: Este fichero es trabajo propio de su transcriptor y representa su interpretación personal de la canción. El material contenido en esta página es para exclusivo uso privado, por lo que se prohibe su reproducción o retransmisión, así como su uso para fines comerciales.
comentario del colaborador: Andaba chekando los tabs de esta rola, y de los pocos tabs que encontré no estaban completos :( asi que después de una tarde creo que al fin está la rola. A mi parecer se encuentra mucho más completa:D Claro, siempre se puede corregir Es mi primer tablatura subida a internet :D Los puntos (···) significan qe alargues la nota.

Califica esta canción


Comentarios en Facebook